הסתר פרסומות
הידעת ?
אין הידעת, הוסף ידיעה
אקורדים לשיר Runaway - Del Shannon
דירוג: 8 הירשם ודרג!
Intro:

  Am
e|---0-0-------0-0--------0-0--------0-0------0--|
B|---1-1-------1-1--------1-1--------1-1------1--|
G|---2-2-------2-2--------2-2--------2-2------2--|
D|---2-2-------2-2--------2-2--------2-2------2--|
A|-0---------0----------0-----------0---------0--|
E|-------0-3--------0-3---------0-3------0-3-----|

Am             
As I walk along
  G                     
I wonder what went wrong
     F                              E    E7
With our love, a love that was so strong   
Am                    
And as I still walk on
   G                            
I think of the things we've done
  F                               E     E7
Together, a-while our hearts were young   

A                          
I'm a-walkin' in the rain  
F#m                                     
Tears are fallin' and I feel the pain   
A                            
Wishin' you were here by me  
F#m                  
To end this misery   
      A     
And I wonder
                  F#m   
I wah-wah-wah-wah-wonder
A  
Why
                    F#m              
Why, why, why, why, why she ran away?
      D     
And I wonder
                 E      
A-where she will stay-ay
          A      
My little runaway
D                   A       E
Run, run, run, run, runaway  

Solo:

   Am                                      
e|----------------------------------------|
B|----------------------------------------|
G|-14-14-13-14-------14-13-14----------14-|
D|-------------14-------------14----14----|
A|----------------15-------------15-------|
E|----------------------------------------|

   G                                        
e|-----------------------------------------|
B|-----------------------------------------|
G|--12-11h12----------------------------12-|
D|-----------11h12--8h9------8h9--10/12----|
A|----------------------9h10---------------|
E|-----------------------------------------|

   F                  
e|-------------------|
B|-------------------|
G|10-10-9-10---------|
D|-----------10------|
A|-------------12----|
E|-------------------|

                            E        
e|----------------------------------|
B|----------------------------------|
G|-----10-9-10----------10--9h10-9--|
D|-------------10----10-------------|
A|----------------12----------------|
E|----------------------------------|

   E7                          
e|----------------------------|
B|----------------------------|
G|-----9----7----5----4----2--|
D|----------------------------|
A|--7----5----3----2----0-----|
E|----------------------------|

    Am                                          
e|---------------------------------------------|
B|---------------------------------------------|
G|--12/14-14-13-14--------14-13-14----------14-|
D|-----------------14--------------14----14----|
A|--------------------15--------------15-------|
E|---------------------------------------------|

    G                                           
e|---------------------------------------------|
B|---------------------------------------------|
G|--12-11h12-----------------------------------|
D|-----------11h12--8h9------------------------|
A|-----------------------9h10---4h5------------|
E|-----------------------------------6h7----3--|

   F                                          
e|-------------------------------------------|
B|-------------------------------------------|
G|--8/10-10-9-10--------12-10-9--------12-10-|
D|---------------10-------------10-----------|
A|------------------12-------------12--------|
E|-------------------------------------------|

   E                                        
e|--12-9---12-9----------------------------|
B|---------------12-9---12-9---------------|
G|----------------------------11-9------9--|
D|----------------------------------11-----|
A|-----------------------------------------|
E|-----------------------------------------|

   E7                                
e|----------------------------------|
B|----------------------------------|
G|-----9-----7-----5-----4-----2----|
D|----------------------------------|
A|--7-----5-----3-----2-----0-------|
E|----------------------------------|

A                          
I'm a-walkin' in the rain  
F#m                                     
Tears are fallin' and I feel the pain   
A                            
Wishin' you were here by me  
F#m                  
To end this misery   
      A     
And I wonder
                  F#m   
I wah-wah-wah-wah-wonder
A  
Why
                    F#m             
Why, why, why, why, why she ran away
      D     
And I wonder
                 E      
A-where she will stay-ay
          A      
My little runaway
D                   A      
Run, run, run, run, runaway
D                   A      
Run, run, run, run, runaway
D                   A      
Run, run, run, run, runaway
שירים נוספים של Del Shannon:
שירים נוספים מהקטגוריה שיר שנערך על ידי גולש:
שלי שרון - סופשבוע
אליעזר בוצר - ציון
מאיר אריאל - קוצים א'
ירמי קפלן - היא האחת
שרי - לעולם בעקבות השמש
הודעה מהמערכת
כרגע אינך מופיע בתוצאות החיפוש של מערכת הכרויות הנגנים ב TAB4U.