הסתר פרסומות
הידעת ? אין הידעת, הוסף ידיעה
אקורדים לשיר לא נשבע סתם - כוכב אניס
פתיחה - גיטרה 1: 

e|--------------------------------|
B|--------------------------------|
G|-12-12-12-13-10-12--12----------|
D|-----------------------13-12-10-|
A|--------------------------------|
E|--------------------------------|

e|--------------------------------|
B|--------------------------------|
G|-12-12-12-13-10-12s0------------|
D|--------------------------------|
A|--------------------------------|
E|--------------------------------|

גיטרה 2: 

e|--------------------------------|
B|-11-11-11-13-9-11-11------------|
G|---------------------12-10-8s15-|
D|--------------------------------|
A|--------------------------------|
E|--------------------------------|

e|--------------------------------|
B|-11-11-11-13-9-11---------------|
G|--------------------------------|
D|--------------------------------|
A|--------------------------------|
E|--------------------------------|

Main riff: 

e|--------------------------------|
B|--------------------------------|
G|--------------------------------|
D|-----------------------------5--|
A|--------------------------5-----|
E|1-3-4-1-1s3--1-3-4-1-1s3--------|

                     Gm    Gm/Ab Gm
אני חולה עלייך                     
                Gm        Bb
ואת שקועה בפלרטוטים         
            Gm       Gm/Ab       Gm
אני רוצה לקרוא לך מאמי             
                         Gm
בואי מאמי                  

                   Gm          Bb
ואיך את מסתובבת                  
                Gm           Cm
עם כולם רק לא איתי             
               Gm          Bb
כאילו לא היה בינינו          
                       Gm
וואחד רומאנס             
                       G5        G5
אני אומר לך לא מחרטט               
             Bb A5 Ab5 G5        G5
בראש של מנש לא מסתלבט              
                       Ab
לא נשבע סתם              

לא נשבע                            
                         G5      G5
אח שלי אני אומר                    
          Bb A5 Ab5 G5           G5
אני לא בגדתי אני לא בוגד           
                        Ab
לא נשבע סתם               

לא נשבע             
               
מעבר - גיטרה 1: 

e|--------------------------------|
B|--------------------------------|
G|-12-12-12-13-10-12--12----------|
D|-----------------------13-12-10-|
A|--------------------------------|
E|--------------------------------|

e|--------------------------------|
B|--------------------------------|
G|-12-12-12-13-10-12s0------------|
D|--------------------------------|
A|--------------------------------|
E|--------------------------------|

גיטרה 2

e|--------------------------------|
B|-11-11-11-13-9-11-11------------|
G|---------------------12-10-8s15-|
D|--------------------------------|
A|--------------------------------|
E|--------------------------------|

e|--------------------------------|
B|-11-11-11-13-9-11---------------|
G|--------------------------------|
D|--------------------------------|
A|--------------------------------|
E|--------------------------------|

Main riff: 

e|--------------------------------|
B|--------------------------------|
G|--------------------------------|
D|-----------------------------5--|
A|--------------------------5-----|
E|1-3-4-1-1s3--1-3-4-1-1s3--------|

                     Gm    Gm/Ab Gm
אני שרוף עלייך                     
                   Gm      Bb
ואת אומרת תישרף              
                    Gm  Gm/Ab    Gm
ובשכונה כבר מדברים                 
                   Gm       Bb
שהסנדלר הולך יחף              
           Gm          Bb A5 Ab5 G5
לא מסתובב עם החזה מתוח             
                           Cm
כמו דז'ורנל                  
                      Gm
כשאת לא בסביבה          
                  Gm   Bb A5 Ab5 G5
ו מ א ז שאת איננה                  

זה כמו חורף קפא לי הנשמה           
               G5        G5
אני אומר לך לא מחרטט       
             Bb A5 Ab5 G5        G5
בראש של מנש לא מסתלבט              
                       Ab
לא נשבע סתם              

לא נשבע                            
                         G5      G5
אח שלי אני אומר                    
          Bb A5 Ab5 G5           G5
אני לא בגדתי אני לא בוגד           
                        Ab
לא נשבע סתם               

לא נשבע     
                       
סיום: 

  Gm
e|--------------------------------|
B|--------------------------------|
G|-12-12-12-13-10-12--12----------|
D|-----------------------13-12-10-|
A|--------------------------------|
E|--------------------------------|

e|--------------------------------|
B|--------------------------------|
G|-12-12-12-13-10-12s0------------|
D|--------------------------------|
A|--------------------------------|
E|--------------------------------|

e|--------------------------------|
B|--------------------------------|
G|-12-12-12-13-10-12--12----------|
D|-----------------------13-12-10-|
A|--------------------------------|
E|--------------------------------|

e|--------------------------------|
B|--------------------------------|
G|-12-12-12-13-10-10h12-----------|
D|--------------------------------|
A|--------------------------------|
E|--------------------------------|
שירים נוספים של כוכב אניס:
עוד יום ביילנדו אל תעשי עניין מפליק הבן של הקצב פני בוזוקי עם מי היית מלט כאב של ערק
שירים נוספים מהקטגוריה שיר שנערך על ידי גולש:
עידן עמדי - נשכח או נסלח
עלמה זוהר - כחולת עיניים
אמיר פיי גוטמן - אל תוותר
אריאל זילבר - הופ לגדול בידיים טובות
ישי ריבו - יגדל
הודעה מהמערכת
כרגע אינך מופיע בתוצאות החיפוש של מערכת הכרויות הנגנים ב TAB4U.