הסתר פרסומות »

אקורדים לשיר As a Stone של Full Trunk and Sivan Talmor

אין גירסה קלה
Capo on first fret

Intro: 

e|--------------------------|
B|-66/11-11-13-14-13-11-9---|
G|-----------------------10-|
D|--------------------------|
A|--------------------------|
E|--------------------------|

e|------------------------------------------|
B|---9--9-9h11p9----------------------------|
G|-10------------10-6-88s10-8-6-------------|
D|------------------------------------------|
A|-------------------------------0----------|
E|------------------------------------------|

Am     Fmaj7
Slowly I'm  
Dm                             Am  
Facing all the things I left behind
Am                Fmaj7
All, all I ever tried  
     Dm               
Was just to find a way
            Am 
To ease my mind

C                  Em7 
Cold hearted as a stone
Dm                      Am  
Pulling tricks to play along
           C            G  
I'm going back to be myself
            Am  
As I have known 

Am     Fmaj7
Slowly I'm  
Dm                             Am  
Facing all the things I left behind
Am     Fmaj7      Dm          
Slowly I'm letting go of fears
               Am 
I've tried to hide
Bridge:
Am Dm Am Dm x2

C                  Em7 
Cold hearted as a stone
Dm                      Am  
Pulling tricks to play along
           C            G  
I'm going back to be myself
            D  
As I have known
Bridge:
Am Dm Am Dm x2

Ending:
Am Dm Am Dm x2
Full Trunk
חדוות המאבקעינייםLet's Goקדימה לאותו מקוםסתלבט בקיבוץMad About YouAs A StoneממותהברצלונהFull trunk Hey Hey
שיר שנערך על ידי גולש
עקיבא תורג'מן - קרוסלה
חוה אלברשטיין - לונדון
כנסיית השכל - להיות לבד
שלמה קרליבך - אודה ה'
עמיחי פלסר - הולך תמים
הודעה מהמערכת
כרגע אינך מופיע בתוצאות החיפוש של מערכת הכרויות הנגנים ב TAB4U.