הסתר פרסומות
הידעת ?
אין הידעת, הוסף ידיעה
אקורדים לשיר As a Stone - Full Trunk and Sivan Talmor
דירוג: 6 הירשם ודרג!
Capo on first fret

Intro: 

e|--------------------------|
B|-6/11-11-13-11h13p11-9----|
G|-----------------------10-|
D|--------------------------|
A|--------------------------|
E|--------------------------|

e|------------------------------------------|
B|---------9-9h11-9-------------------------|
G|-10\8-10----------10\8-6-8-8/9-8-6--------|
D|-----------------------------------8-6-6h8|
A|------------------------------------------|
E|------------------------------------------|

Am     F  
Slowly I'm
Dm                             Am  
Facing all the things I left behind
Am                F  
All, all I ever tried
     Dm               
Was just to find a way
            Am 
To ease my mind

C                  Em7 
Cold hearted as a stone
Dm                      Am  
Pulling tricks to play along
           C            G  
I'm going back to be myself
            D  
As I have known

Am     F  
Slowly I'm
Dm                             Am  
Facing all the things I left behind
Am     F      Dm              
Slowly I'm letting go of fears
               Am 
I've tried to hide

C                  Em7 
Cold hearted as a stone
Dm                      Am  
Pulling tricks to play along
           C            G  
I'm going back to be myself
            D  
As I have known
שירים נוספים של Full Trunk:
ברצלונה As A Stone Going home Baby Put The Gun Down As A Stone
שירים נוספים מהקטגוריה שיר שנערך על ידי גולש:
גיא מנטש ויהל דורון - להציל אותי
דודו אהרון - הכי יפה
רמלה - וואו
אריק איינשטיין - ועוד לא אמרתי הכל
סטטיק - זהב
הודעה מהמערכת
כרגע אינך מופיע בתוצאות החיפוש של מערכת הכרויות הנגנים ב TAB4U.