הסתר פרסומות
הידעת ?
אין הידעת, הוסף ידיעה
אקורדים לשיר The Night We Met - Lord Huron
Intro:

   F#m         E7    A
e|-------------------------------------------|
B|-------------------------2-----------2-----|
G|-------2---------2-----2---2-------2---2---|
D|-----4---4-----------2-------2---2-------2-|
A|---4-------4---1---0-----------0-----------|
E|-2-----------0-----------------------------|

   F#m         A     D                        
e|-------------------------2-----------2-----|
B|-----------------------3---3-------3---3---|
G|-------2---------2---2-------2---2-------2-|
D|-----4---4-----2---0-----------0-----------|
A|---4-------4-0-----------------------------|
E|-2-----------------------------------------|

F#m          E7   A       
I am not the only traveler
F#m           A        D   
Who has not repaid his debt
          F#m             E7   
I've been searching for a trail
   A           
To follow again
        F#m         A        D  
Take me back to the night we met

         F#m   E7     A   
And then I can tell myself
         F#m      A           D 
What the hell I'm supposed to do
         F#m   E7     A   
And then I can tell myself
       F#m   A         D  
Not to ride along with you

      F#m                      
I had all and then most of you,
E7           A          
Some and now none of you
        F#m         A        D  
Take me back to the night we met
        F#m                          
I don't know what I'm supposed to do,
E7             A           
Haunted by the ghost of you
            F#m         A        D  
Oh, take me back to the night we met

         F#m       E7      A      
When the night was full of terrors
         F#m       A           D    
And your eyes were filled with tears
         F#m     E7         A  
When you had not touched me yet
            F#m         A        D  
Oh, take me back to the night we met

      F#m                      
I had all and then most of you,
E7           A          
Some and now none of you
        F#m         A        D  
Take me back to the night we met
        F#m                          
I don't know what I'm supposed to do,
E7             A           
Haunted by the ghost of you
        F#m         A        D  
Take me back to the night we met
שירים נוספים של Lord Huron:
שירים נוספים מהקטגוריה לא הוגדר:
קרן פלס - רכבת באירופה
אריק איינשטיין - בית הערבה
ארקדי דוכין - סימה
אייל גולן - ים של טעויות
פאר טסי - תחזרי
הודעה מהמערכת
כרגע אינך מופיע בתוצאות החיפוש של מערכת הכרויות הנגנים ב TAB4U.