הסתר פרסומות
הידעת ?
אין הידעת, הוסף ידיעה
אקורדים לשיר ויש ציפור בשמיים - אלון עדר
דירוג: 10 הירשם ודרג!
Am7/B: 022210
Bsus7: 797978 or x24252
Am/G: 3x2210
Am/F#: 2x2210
Am/F: 1x2210

ריף פתיחה:

e|0-----------------------------------------|
B|--3-1-0-----------------------------------|
G|--------2-0-------------------------------|
D|-------------4-3-2------------------------|
A|------------------------------------------|
E|------------------------------------------|

פתיחה:

   Em

e|---0----0----0-----0----0-----0-------0---|
B|---0----0----0-----0----0-----0------0-0--|
G|---0----0----0-----0----0-----0-----0---0-|
D|------------------------------------------|
A|-7--7-6--6-5---5-3--3-1---1-2---2-7------7|
E|------------------------------------------|

   F#m      Am7/B   Em  
ויש ציפור בשמיים, שאולי
   Em         Bsus7
שרה עכשיו שיר מתוק 
   F#m      Am7/B   Em  
ויש ציפור בשמיים, שאולי
   Em         Bsus7
שרה עכשיו שיר מתוק 

Bsus7 Am/F# Am/G Am
לו הייתי אדם       
         C
איש רגליים
  Bsus7        F#m    
על האדמה הגדולה והכבדה
             E        
הייתי עומד ועומד ועומד

Bsus7 Am/F Am/G Am
לו הייתי אדם      
          C
איש רגליים 
  Bsus7        F#m    
על האדמה הגדולה והכבדה
Em (intro)           
ולא זז משם לעולם

   F#m       Am7/B   Em 
ויש ציפור בשמיים, שאולי
   Em         Bsus7
שרה עכשיו שיר מתוק 
   F#m       Am7/B   Em 
ויש ציפור בשמיים, שאולי
   Em         Bsus7
שרה עכשיו שיר מתוק 

Bsus7 Am/F# Am/G Am
לו הייתי אדם       
         C
איש רגליים
  Bsus7        F#m    
על האדמה הגדולה והכבדה
             E        
הייתי עומד ועומד ועומד

Bsus7 Am/F Am/G Am
לו הייתי אדם      
          C
איש רגליים 
  Bsus7        F#m    
על האדמה הגדולה והכבדה
           Em   
ולא זז משם לעולם
שירים נוספים של אלון עדר:
אהובתי שלי לבנת צוואר אישה שלי קצת אהבה לא תזיק קשה בלילה בלי אדם גופי היה חכם ממני את עוד תהיי איתי סי.טי
שירים נוספים מהקטגוריה שיר שנערך על ידי גולש:
חסידות מודז'יץ - עולם הבא
נוי פדלון - סוודר
איפה הילד - כוכב חדש
חיים ישראל - יונת השלום
שלמה ארצי - מנגב לך את הדמעות
הודעה מהמערכת
כרגע אינך מופיע בתוצאות החיפוש של מערכת הכרויות הנגנים ב TAB4U.