השירים שלי
ציבוריפרטי
השירים שלי
משתמש פרימיום »
הסתר פרסומות »

One Direction - 18

מחבר: Oliver Frank & Ed Sheeran


עורך השיר: צוות TAB4U בקשת Express
קטגוריה: Pop
פריטה:
לצפייה בפריטות השירים יש להיות משתמש רשום ומחוברהרשמה \ התחברות
Intro:

   A         Asus2 A         Asus2 
e|--------------------------------|
B|-2-----2---0-----2-----2---0----|
G|--------------------------------|
D|--------------------------------|
A|-0-0-0-0-0-0-0-0-0-0-0-0-0-0-0-0|
E|--------------------------------|

   F#m       F#4   F#m       F#4   
e|--------------------------------|
B|-2-----2---0-----2-----2---0----|
G|--------------------------------|
D|--------------------------------|
A|--------------------------------|
E|-2-2-2-2-2-2-2-2-2-2-2-2-2-2-2-2|

   Dmaj7     D6    Dmaj7     D6    
e|--------------------------------|
B|-2-----2---0-----2-----2---0----|
G|--------------------------------|
D|-0-0-0-0-0-0-0-0-0-0-0-0-0-0-0-0|
A|--------------------------------|
E|--------------------------------|

   A         Asus2 A         Asus2 
e|--------------------------------|
B|-2-----2---0-----2-----2---0----|
G|--------------------------------|
D|--------------------------------|
A|-0-0-0-0-0-0-0-0-0-0-0-0-0-0-0-0|
E|--------------------------------|

         A   
I got a heart
             F#m
And I got a soul
 Dmaj7                      A  
Believe me I will use them both
            A  
We made a start
         F#m             
Be it a false one, I know
    Dmaj7                   A   
Baby, I don't want to feel alone

     E            Dmaj7    
So kiss me where I lay down
     E                    Dmaj7
My hands pressed to your cheeks
    E                 Dmaj7     A
A long way from the playground   

A               
I have loved you
Dadd9             F#m E A
Since we were 18         
               Dadd9       
Long before we both thought
                F#m
The same thing     
        E                      A
To be loved and to be in love   
           Dadd9          
All I could do is say that
       F#m          
These arms were made
       E         A
For holding you   
        Dadd9         F#m    
I wanna love like you made me
                     
Feel when we were 18 

Bridge:

   A         Asus2 A         Asus2 
e|--------------------------------|
B|-2-----2---0-----2-----2---0----|
G|--------------------------------|
D|--------------------------------|
A|-0-0-0-0-0-0-0-0-0-0-0-0-0-0-0-0|
E|--------------------------------|

   A         Asus2 A         Asus2 
e|--------------------------------|
B|-2-----2---0-----2-----2---0----|
G|--------------------------------|
D|--------------------------------|
A|-0-0-0-0-0-0-0-0-0-0-0-0-0-0-0-0|
E|--------------------------------|

   A         Asus2 A         Asus2 
e|--------------------------------|
B|-2-----2---0-----2-----2---0----|
G|--------------------------------|
D|--------------------------------|
A|-0-0-0-0-0-0-0-0-0-0-0-0-0-0-0-0|
E|--------------------------------|

   A         Asus2 A               
e|--------------------------------|
B|-2-----2---0-----2-----2--------|
G|--------------------------------|
D|--------------------------------|
A|-0-0-0-0-0-0-0-0-0-0-0-0--------|
E|--------------------------------|

            A   
We took a chance
             F#m  
God knows we tried
   Dmaj7                       A  
Yet all along, I knew we'd be fine

              A             
So pour me a drink, oh, love
                 F#m           
Let's split the night wide open
                Dmaj7   
And we'll see everything
Dmaj7                
We can livin' love in
       A                   
Slow motion, motion, motion

     E            Dmaj7    
So kiss me where I lay down
     E                    Dmaj7
My hands pressed to your cheeks
    E                 Dmaj7     A
A long way from the playground   

A               
I have loved you
Dadd9             F#m E A
Since we were 18         
               Dadd9       
Long before we both thought
                F#m
The same thing     
        E                      A
To be loved and to be in love   
           Dadd9          
All I could do is say that
       F#m          
These arms were made
       E         A
For holding you   
        Dadd9         F#m    
I wanna love like you made me
      E             
Feel when we were 18

Bridge: x2
A Dadd9 F#m E

     E            Dmaj7    
So kiss me where I lay down
     E                    Dmaj7
My hands pressed to your cheeks
    E                 Dmaj7    F#m
A long way from the playground    
F#m             
I have loved you
E4                A F#m
Since we were 18       
Bridge:
Dmaj7 A A F#m x4

                       E4  
Long before we both thought
                A
The same thing   
Bridge:
Dmaj7 A A F#m x4

                               A
To be loved and to be in love   
           Dadd9          
All I could do is say that
       F#m          
These arms were made
       E         A
For holding you   
        Dadd9         F#m    
I wanna love like you made me
      E               A
Feel when we were 18   
        Dadd9         F#m    
I wanna love like you made me
      E               A
Feel when we were 18   
        Dadd9         F#m    
I wanna love like you made me
      E             
Feel when we were 18

Ending:
A F#m Dmaj7 A x4
שירים נוספים של One Direction:
Story Of My Life
שירים נוספים מהקטגוריה Pop:
Skeeter Davis - End Of The World
Suzanne Vega - Tom's Diner
Mariah Carey - We Belong Together
Janieck Devy - reality
Alanis Morissette - You Learn
הודעה מהמערכת
כרגע אינך מופיע בתוצאות החיפוש של מערכת הכרויות הנגנים ב TAB4U.