השירים שלי
השירים שלי
הסתר פרסומות
הידעת ? אין הידעת, הוסף ידיעה
אקורדים לשיר כוכב חדש - איפה הילד

איפה הילד - כוכב חדש

מחבר ומלחין: חמי רודנר
פתיחה:

   Em        C            
e|-----------------------|
B|------12---12-13-12----|
G|-12-9---------------12-|
D|-----------------------|
A|-----------------------|
E|-----------------------|

   Am        B           
e|----------------------|
B|-------------------12-|
G|-------9---12-9-11----|
D|-12-10----------------|
A|----------------------|
E|----------------------|

       D             Em
יורד הלילה על הארץ הקשה
Am    C              Em
אך לא פסקו מלחמותיה    
        D              Em
תמיד תובעת קורבנות לאדמתה
Am    C           Em
לא תשבע מדם בניה    
         D              Em
המדורות דולקות בארץ הקדושה
Am    C            Em
ולא פסקו מזבחותיה    
         D                Em
פיות אף פעם לא חסרו לה לעולה
Am    C      Em
וקנאים אליה    

  E           D
בין אילת לנהריה
F#m   G#m             E
גבעת ברנר תל אביב וחיפה
C D Em    Em             Am
אנשים עוצמים עיניים        
            D           C
מחפשים תשובה מבקשים תקווה

   C              G
כוכב חדש יאיר הלילה
  C           G  
יזרח ברחמים עלינו
       C          G 
ורק ילדים יבואו אליו
   C          A 
אנחנו ומלחמותינו
 G     C G     
לא נבוא לא נבוא

מעבר:

   Em        C            
e|-----------------------|
B|------12---12-13-12----|
G|-12-9---------------12-|
D|-----------------------|
A|-----------------------|
E|-----------------------|

   Am        B           
e|----------------------|
B|-------------------12-|
G|-------9---12-9-11----|
D|-12-10----------------|
A|----------------------|
E|----------------------|

          D           Em
הארץ אחוזת חלום היא ישנה
Am    C       Em
ורוח בנקיקיה    
          D           Em
מדברותיה עתיקים מכל מדבר
Am    C       Em
וזועפים הריה    

  E           D
בין אילת לנהריה
F#m   G#m             E
גבעת ברנר תל אביב וחיפה
C D Em    Em             Am
אנשים עוצמים עיניים        
            D           C
מחפשים תשובה מבקשים תקווה

   C              G
כוכב חדש יאיר הלילה
  C           G  
יזרח ברחמים עלינו
       C          G 
ורק ילדים יבואו אליו
   C          A 
אנחנוו ומלחמותינו
 G     C G     
לא נבוא לא נבוא

סיום:
Em Am D Am x2
שירים נוספים של איפה הילד:
אחד האלוהים זוהי סדום כולם רוצים חבר השמיים הגבול רק בשביל לקבל חיבוק הביאו את הסתיו גלגל את החלום העצב שלה אנחנו מתחתנים מסיבת התה של עליזה
שירים נוספים מהקטגוריה שיר שנערך על ידי גולש:
ג'יין בורדו - מעגלים
עלמה קלברמן - שקט
Imagine Dragons - It's Time
בית הבובות - מישהו שומע
Airbag - solo aqui
הודעה מהמערכת
כרגע אינך מופיע בתוצאות החיפוש של מערכת הכרויות הנגנים ב TAB4U.