הסתר פרסומות »

אקורדים לשיר As Tears Go By של Rolling Stones


Quiet songs
אין גירסה קלה
Intro:

e|----------------------------------|
B|-------3---3-3---------2----3-2---|
G|---------0-----0---------2------2-|
D|-----------0-----0---2-----2------|
A|-------------------0--------------|
E|-2-3------------------------------|

e|----3---------------5---------------|
B|------1---------------7--7h10-------|
G|--------0---------------------7-----|
D|----------0-2---2-0-------------0---|
A|-3----------------------------------|
E|----------------------------------3-|

G         A              C   D  G
It is the evening of the day     
G         A                   C  D  C
I sit and watch the children play    
C             D         G
Smiling faces I can see  
    G/F#    Em   C
But not for me    
C                           D   G
I sit and watch as tears go by   

G         A              C     D  G
My riches can't buy everything     
G         A                 C    D  C
I want to hear the children sing     
C           D            G
All I hear  is the sound  
           G/F#  Em            Em/D C
Of rain falling  on the ground       
C                           D   G
I sit and watch as tears go by   

Bridge:
G A C D G A C D C D
G G/F# Em Em/D C C D D G

G         A              C    D  G
It is the evening of the day      
G         A                   C    D  C
I sit and watch the children play      
C              D           G
Doin' things I used to do   
     G/F#      Em   Em/D C
They think are new        
C                           D   G
I sit and watch as tears go by   

Ending:
G A C D G A C D
Bridge:
C G/F# G G x2

Bridge:
C G/F# G G x2

Rolling Stones
Ruby TuesdayJumping Jack FlashLiving In A Ghost TownStart Me UpShe's A RainbowMidnight RamblerYou Can't Always Get What You WantGimme SheleterAngieSatisfaction
Quiet songs
Sam Smith - Stay With Me
The Righteous Brothers - UnChained Melody
Neil Young - My My, Hey Hey (Out Of The Blue)
Elton John - Friends Never Say Goodbye
Steven Wilson ונינט טייב - Pariah
הודעה מהמערכת
כרגע אינך מופיע בתוצאות החיפוש של מערכת הכרויות הנגנים ב TAB4U.