הסתר פרסומות
הידעת ? אין הידעת, הוסף ידיעה
אקורדים לשיר Freedom Fighters - The Angelcy
דירוג: 5.86 הירשם ודרג!

The Angelcy - Freedom Fighters

מחבר ומלחין: Rotem Bar Or
קטגוריה: Rock Guitar solo
Intro:

            F5      Am      D5               
e|-------||---------------------------------|
B|-------||---------------------------------|
G|-------||---------------------------------|
D|-x-x-x-||-3-3---3s7-7-----12-12-----------|
A|-x-x-x-||-3-3---3s7-7-----12-12-----------|
E|-x-x-x-||-1-1---1s5-5---5s10-10--10b13b10-|

   F5      Am      D5         F5      Am   
e|-----------------------|--|-------------|
B|-----------------------|--|-------------|
G|-----------------------|x3|-------------|
D|-3-3---3s7-7-----12-12-|--|-3-3---3s7-7-|
A|-3-3---3s7-7-----12-12-|--|-3-3---3s7-7-|
E|-1-1---1s5-5---5s10-10-|--|-1-1---1s5-5-|

     D5                 F5    Am    D5
e|-----------------------------------|
B|-----------------------------------|
G|-----------------------------------|
D|---12-12--------------3-3---3s7-7--|
A|---12-12--------------3-3---3s7-7--|
E|-5s10-10--10b13b10----1-1---1s5-5--|

        D5                             
Freedom fighters   killed my only child
    F       Am    Dm   
One people stand united
               F   
With all their fear
     Am        Dm   
With all their might
   F      Am        Dm   
To fight  one more  fight
   Dm    F  Dm           F  Dm
To fight me     to fight me   

           F      Am Dm
Mind, like pastry      
       F  Am   Dm
Can be molded    
          F    Am       Dm       
The real story    stays    untold
          F      Am      Dm    
The best stories    stay untold

Bridge:

   F5      Am      D5               
e|---------------------------------|
B|---------------------------------|
G|---------------------------------|
D|-3-3---3s7-7-----12-12-----------|
A|-3-3---3s7-7-----12-12-----------|
E|-1-1---1s5-5---5s10-10--10b13b10-|

   F5      Am      D5     
e|-----------------------|
B|-----------------------|
G|-----------------------|
D|-3-3---3s7-7-----12-12-|
A|-3-3---3s7-7-----12-12-|
E|-1-1---1s5-5---5s10-10-|

   F5      Am      D5             F5    D5 
e|----------------------------------------|
B|----------------------------------------|
G|----------------------------------------|
D|-3-3--3s7-7----12-12------------3-3---12|
A|-3-3--3s7-7----12-12------------3-3---12|
E|-1-1--1s5-5--5s10-10--10b13b10--1-1---10|

D5                                
Ahhh ahhh ahhhh  ahhhh ahhhh ahhhh
D5                                
Ahhh ahhh ahhhh  ahhhh ahhhh ahhhh
D5                                   
Ah ah ah ah ah ah ah ahhh ahhhh ahhhh
D5              
Ahhh ahhh ahhhhh
D5                                
Ahhh ahhh ahhhh  ahhhh ahhhh ahhhh

         D5            D5           
Nobody's soldiers   in nobody's land
          D5            D5            
(Nobody's soldiers   in nobody's land)
D5                
Nobody's  soldiers
F Am     D5       F Am    D5            
Nobody's soldiers     (in nobody's land)
F Am     D5       F Am    D5            
Nobody's soldiers     (in nobody's land)
F Am     D5       F Am    D5            
Nobody's soldiers     (in nobody's land)
F Am     D5                         
Nobody's soldiers      nobody's land

Bridge:
F Am D5 F Am D5 F Am D5


שירים נוספים של The Angelcy:
Dreamer The Call My baby boy I Worry my baby boy
שירים נוספים מהקטגוריה Rock:
Pearl Jam - Last Kiss
The Police - Roxanne
Aerosmith - Crying
Green day - Holiday
Red Hot Chili Peppers - Californiacation
הודעה מהמערכת
כרגע אינך מופיע בתוצאות החיפוש של מערכת הכרויות הנגנים ב TAB4U.