הסתר פרסומות
הידעת ? אין הידעת, הוסף ידיעה
אקורדים לשיר Lovesong - The Cure
דירוג: 6 הירשם ודרג!

The Cure - Lovesong



קטגוריה: Rock Familiar Songs
Intro:
Am9 G F Em Am G F Em x2
Am9

Am       G              F   Em  Am
Whenever I'm alone with you       
Am          G              F         Em Am
You make me feel like I am home again     
Am       G              F   Em  Am
Whenever I'm alone with you       
Am          G              F          Em
You make me feel like I am whole again  

Bridge:

         Am                    G         
e|--------------------------------------|
B|-10-12-13-13-12-10-12-12-10-----------|
G|----------------------------12-9-9--9-|
D|--------------------------------------|
A|--------------------------------------|
E|--------------------------------------|

          F                      Em      
e|--------------------------------------|
B|-10-12-13-13-12-10-12-12-10-----------|
G|----------------------------12-9-9--9-|
D|--------------------------------------|
A|--------------------------------------|
E|--------------------------------------|

         Am                    G         
e|--------------------------------------|
B|-10-12-13-13-12-10-12-12-10-----------|
G|----------------------------12-9-9--9-|
D|--------------------------------------|
A|--------------------------------------|
E|--------------------------------------|

       F   Em 
e|-----------|
B|-----------|
G|-----------|
D|-12--10----|
A|-----------|
E|-----------|

  Am          G         F   Em Am
Whenever I'm alone with you      
Am          G              F          Em
You make me feel like I am young again  
  Am          G           F  Em  Am
Whenever I'm alone with you        
Am          G              F         Em  F
You make me feel like I am fun again      

F       G        Am
However far away   
       C               F
I will always love you  
F       G           Am
However long I stay   
       C               F
I will always love you  
         G           Am
Whatever words I say   
       C               F
I will always love you  
       G               Am
I will always love you   

Bridge:
Am G F Em Am G F Em x2

    Am             G      F   Em  Am
Whenever I'm alone   with you       
Am          G               F        Em
You make me feel like I am free again  
    Am             G      F   Em  Am
Whenever I'm alone   with you       
Am          G               F         Em F
You make me feel like I am clean again    

F       G        Am
However far away   
       C               F
I will always love you  
F       G           Am
However long I stay   
       C               F
I will always love you  
         G           Am
Whatever words I say   
       C               F
I will always love you  
       G               Am
I will always love you   


שירים נוספים של The Cure:
Friday I'm in love Boys Don't Cry Just Like Heaven
שירים נוספים מהקטגוריה Rock:
Scorpions - Rock You Like A Hurricane
The Angelcy - Freedom Fighters
The Beatles - Sexy Sadie
The Lumineers - Ho Hey
System Of A Down - Lonely Day
הודעה מהמערכת
כרגע אינך מופיע בתוצאות החיפוש של מערכת הכרויות הנגנים ב TAB4U.