הסתר פרסומות
הידעת ?
אין הידעת, הוסף ידיעה
אקורדים לשיר את לא יודעת - אמן
דירוג: 5.54 הירשם ודרג!
  Abm          Abm       C#dim        C#m
המילים מייבשות את הגרון חונקות מלדבר     
  Abm          Abm       C#dim        C#m
מסתחררות בראש ומתנפצות על קצה הלשון      
C#dim               C#m   
בסוף כל משפט, כל שיחה קטנה
Abm             Abm  
נשאר לי עוד הרבה לומר
Ddim7     C#dim    C#m
בסוף כל שתיקה מביכה   
     Eb          
בוער בי להיות שלך
 Em7     Abm
ואת לא יודעת
 Eb      Ebm7/A         B
יושב לצידך ומחסיר פעימה  
 Em7     Abm   
את לא רואה אותי
 Eb      Ebm7/A         B
מביט בך שקוף ועטוף בשתיקה
C#dim               C#m  
את כל כך קרובה, כל כך יפה
  Abm          Abm       
אבל כמו משותק אני מונח שם
Ddim7     C#dim    C#m   
בסוף כל חיוך, בסוף כל מבט
     Eb          
בוער בי להיות שלך
 Em7     Abm
והמילים איפה הן
 Eb      Ebm7/A         B
כשבאמת צריך אותן     
 Em7     Abm       
ואת השירים כתבתי לך
  Ebm7/A      B  
בסוף בראש לבד אני
Eb      
שר לעצמי

Verse1:

E|-1----1----0----0-----------------|
B|-3----3----1----1-----------------|
G|-2----1----2----2--------------|x3|
D|-0----0----2----2-----------------|
A|-----------0----0-----------------|
E|----------------------------------|

E|-1----1----2----4---------------|
B|-3----3----1----5---------------|
G|-2----1----2----4---------------|
D|-0----0----1----6-------3-2-----|
A|----------------7---------------|
E|----------------0---------------|

Chorus תקף גם לסי-פארט ולסולו:

E|-0----0----0----0----0---------|
B|-1----1----1----0----0---------|
G|-2----2----0----0----1---------|
D|-2----3----2----0----2---------|
A|-0---------3----2----2---------|
E|---------------------0---------|

שירים נוספים של אמן:
שירים נוספים מהקטגוריה שיר שנערך על ידי גולש:
עילי בוטנר - תצרח
שלמה כהן - אנה אמצאך
עומר אדם - בלילה קר
אביתר בנאי - עומס יתר
גליקריה - אי של אהבה
הודעה מהמערכת
כרגע אינך מופיע בתוצאות החיפוש של מערכת הכרויות הנגנים ב TAB4U.