הסתר פרסומות
הידעת ? אין הידעת, הוסף ידיעה
אקורדים לשיר Sex On Fire - Kings Of Leon
דירוג: 5.96 הירשם ודרג!

Kings Of Leon - Sex On Fire



קטגוריה: Rock Guitar solo
Intro: x2

        E                    C#m             
e|------------------|--|-----------------|--|
B|------------------|--|-----------------|--|
G|---6\---4---4---4-|--|-----------------|--|
D|------------------|x4|---7s6-6---6---6-|x4|
A|------------------|--|-4---4---4---4---|--|
E|-0----0---0---0---|--|-----------------|--|

                 E     
Lay where you're laying
             E    
Don't make a sound
               C#m                       
I know they're watching  they're watching
          E      
All the commotion
                E   
The kitty loved pain
           C#m                     
Has people talking  they're talking

Guitar during the chorus:

e|--4-4-4-4-------------------11--11--11--11|
B|-5-5-5-5---12--12--12--12-12--12--12--12--|
G|---------13--13--13--13-------------------|
D|------------------------------------------|
A|------------------------------------------|
E|------------------------------------------|

e|-7-7-7-7-11----11-----11----11----11-----0|
B|9-9-9-9--14b16-14b16--14----14b16-14b16--9|
G|------------------------------------------|
D|------------------------------------------|
A|------------------------------------------|
E|------------------------------------------|

E                     C#m   A
You    your sex is on fire   

            E                         
Dark of the alley  the breaking of day
               C#m                 
Head while I'm driving  I'm driving
              E   
Soft lips are open
                  E   
Them knuckles are pale
                  C#m           A    
Feels like you're dying  you're dying

E                     C#m   A
You    your sex is on fire   
    E                            C#m   A
And so    were the words to transpire   

         E                      
Hot as a fever    rattling bones
             C#m                 
I could just taste it    taste it
                E   
But it's not forever
                E    
But it's just tonight
                    C#m    
Oh we're still the greatest
     A                    
The greatest  the greatest

E                     C#m   A
You    your sex is on fire   
E                     C#m 
You    your sex is on fire
    E                            C#m   A
And so    were the words to transpire   
    E                    C#m   A
And you   your sex is on fire   
    E                            C#m   A  E
And so    were the words to transpire      
שירים נוספים של Kings Of Leon:
Back Down South Use Somebody Wait For Me Supersoaker Pyro Closer
שירים נוספים מהקטגוריה Rock:
Steve Miller Band - Serenade
David Bowie - Life On Mars?
Moby - Natural Blues
Green day - 21 Guns
Neil Young - Old Man
הודעה מהמערכת
כרגע אינך מופיע בתוצאות החיפוש של מערכת הכרויות הנגנים ב TAB4U.