אקורדים לשיר Love Of My Life של Queen

גרסה קלה
Intro:
Bb F Gm F Bb Bb/A G G/A G/B G

C                        Am     
Love of my life   you've hurt me
        Dm            
You've broken my heart
    G             G7
and now you leave me
C                          F  
Love of my life can't  you see
         Dm              Am  
Bring it back   bring it back
      Bb       F          
Don't take it away from me
  Bb    Am  Dm    Gm  
Because you don't know
C             F    
What it means to me

Bridge:
Bb F Gm F Bb Bb/A G G/A G/B G

C                       Am      
Love of my life   don't leave me
       Dm           
You've taken my love
    G            
you now desert me
C          C7             F  
Love of my life can't you see
         Dm              Am  
Bring it back   bring it back
      Bb       F          
Don't take it away from me
  Bb    Am  Dm    Gm  
Because you don't know
C             F    
What it means to me

Bridge:
Bb F Bb F Eb Bb Bb Bb/A Bb/G F Dm

Dm               
You will remember
     Am                
When this is blown over
    Bb                      F    A   
And everything's all by the way (huu)
Dm               
When I grow older
Am             
I will be there
        F#dim7            
at your side to remind you
    Gm              
How I still love you
 C C/D   C/E  C    F   
(I still love you  huu)

Solo:

   Bb      F   Bb      F   Gm F       C       
e|-------------------------8--8--7-8\--------|
B|-8--10p8p6---8--10p8p6--------------1--0-1~|
G|-------------------------------------------|
D|-------------------------------------------|
A|-------------------------------------------|
E|-------------------------------------------|

   Bb                                       
e|-----------------------------13~---------|
B|-8-10s11-11--13b15--13-11----------------|
G|--------------------------10-------------|
D|-----------------------------------------|
A|-----------------------------------------|
E|-----------------------------------------|

   Bb                       Gm              
e|-------10----13~---------/15--15--14-15--|
B|-11h13----11-----------------------------|
G|-------------------------/15--15--14-15--|
D|-----------------------------------------|
A|-----------------------------------------|
E|-----------------------------------------|

                      F              
e|----------------15-17---17--15-17-|
B|----------13-15-------------------|
G|-12-14-15-------------------------|
D|----------------------------------|
A|----------------------------------|
E|----------------------------------|

        C7                               Dm 
e|-----------------------------------------|
B|-8----8---8b10--8h10-10b12~--------------|
G|---10------------------------------------|
D|-------------------------------3-2-0---3-|
A|-----------------------------3-------3---|
E|-----------------------------------------|
Bridge:
Dm G Bb C x4

Dm           Am  
Back   hurry back
       Bb            F         
Please bring it back home to me
Bb      Am  Dm    Gm  
Because you don't know
C             F    
What it means to me
Dm             
Love of my life
Am             
Love of my life
 Gm    Bbm   F
(Huuuu huuuu) 
Bridge:
Dm G Bb C x4

Ending:
Bb C Dm G x4
Queen
The Show Must Go OnUnder PressureDon't Stop Me NowBohemian RhapsodyA Kind Of MagicWe Are The ChampionsI want It AllThe Prophet's SongI want to break free
Rock
Katy Perry and Skip Marley - Chained To The Rhythm
Geva Alon - Modern Love
Train - Hey Soul Sister
The Beatles - Love me do
Kings Of Leon - Pyro
הודעה מהמערכת
כרגע אינך מופיע בתוצאות החיפוש של מערכת הכרויות הנגנים ב TAB4U.