הסתר פרסומות
הידעת ?
אין הידעת, הוסף ידיעה
אקורדים לשיר Words of love - The Beatles
דירוג: 5.96 הירשם ודרג!

The Beatles - Words of love

מחבר ומלחין: Buddy Holly
קטגוריה: Rock
Intro:

   A            D        E         
e|----------------2------0-----|--|
B|-1s2--2--2--2-----3------2-0-|--|
G|-1s2--2--2--2-------2--------|--|
D|-1s2--2--2--2----------------|x3|
A|---0--0--0--0----------------|--|
E|-----------------------------|--|

   A             D       E       A  
e|-5--5--5-5------2------0---------|
B|-5--5--5-5-5------3------2-0-----|
G|-6--6---------------2--------1-2-|
D|---------------------------------|
A|---------------------------------|
E|---------------------------------|

A                 D  E               A    D
Hold me close and    tell me how you feel  
E               A    D
Tell me love is real  
E     A      D      E       
mm mm mmmmmm mmm mm mm mm mm
A                 D  E                 A   D
Words of love you    whisper soft and true  
E              A   D
Darling I love you  
E     A      D      E        A 
mm mm mmmmmm mmm mm mm mm mm mm

Bridge:
A D E x8

A               D       E               A    D
Let me hear you say the words I long to hear  
E                   A    D 
Darling when you're near   
E     A      D      E       
mm mm mmmmmm mmm mm mm mm mm
A                 D  E                 A   D
Words of love you    whisper soft and true  
E              A   D
Darling I love you  
E     A      D      E        A 
mm mm mmmmmm mmm mm mm mm mm mm
D     E           A     D      E           A 
mm mm mm mm mm mm mmmmm mmm mm mm mm mm mm mm
שירים נוספים של The Beatles:
Penny Lane Can't Buy Me Love I saw her standing there Real Love With a Little Help from My Friends Free As A Bird When I'm Sixty Four Cry Baby Cry All My Loving Hello, Goodbye
שירים נוספים מהקטגוריה Rock:
Guns N' Roses - Don't Cry
Adele - He won't go
Green day - 21 Guns
Lynyrd Skynyrd - Sweet Home Alabama
Neil Young - Cinnamon Girl
הודעה מהמערכת
כרגע אינך מופיע בתוצאות החיפוש של מערכת הכרויות הנגנים ב TAB4U.