הסתר פרסומות
הידעת ?
אין הידעת, הוסף ידיעה
אקורדים לשיר Can't Buy Me Love - The Beatles
דירוג: 5.98 הירשם ודרג!

The Beatles - Can't Buy Me Love

מחבר ומלחין: John Lennon and Paul McCartney
קטגוריה: Familiar Songs | Guitar solo
             Em Am   Em Am
Can't buy me love,   love 
             Dm G
Can't buy me love

     C7                              
I'll buy you a diamond ring my friend
      C7                      
If it makes you feel all right
     F7                        
I'll get you anything my friend
      C7                      
If it makes you feel all right
      G7               F7               
Cause I don't care too    much for money
F7                 C7  
Money can't buy me love

     C7                           
I'll give you all I've got to give
       C7                 
If you say you love me too
  F7                        
I may not have a lot to give
              C7                  
But what I've got I'll give to you
G7               F7               
I don't care too    much for money
F7                 C7  
Money can't buy me love

             Em Am   C                    
Can't buy me love    everybody tells me so
             Em Am   Dm            G 
Can't buy me love    no, no, no,   no

C7                                
Say you don't need no diamond ring
    C7               
And I'll be satisfied
F7                                      
Tell me that you want the kind of things
     C7                  
That money just can't buy
G7               F7               
I don't care too    much for money
F7                 C7              
Money can't buy me love  ahhhhhhhh!

Solo:

   C7                                                     
e|-------------------------------------------------------|
B|-----6b8~--6b8~--6b8~---8b6---------6b8~--6b8~--8b6----|
G|-5-8------------------------8-8---8-----------------8-5|
D|-------------------------------------------------------|
A|-------------------------------------------------------|
E|-------------------------------------------------------|

           F7                       C7                     
e|--------------------------------------------------------|
B|----------------------------------6b8--6b8--6b8--8b6----|
G|------------8---8----8---8--8-8----------------------8-5|
D|-8-5--------7---7----7---7--7-7-------------------------|
A|-----8-6----8---8----8---8--8-8-------------------------|
E|--------------------------------------------------------|

 G7             F7                 C7               
e|-------------------------------------------------|
B|-------------------------------------------------|
G|-2s4--2s4--------------------------3-------------|
D|-3s5--3s5----5s3----1-3-1------3s5---5s3-1-------|
A|--------------------------3----------------3--3--|
E|-------------------------------------------------|

       Em Am   C                    
Buy me love    everybody tells me so
             Em Am   Dm            G 
Can't buy me love    no, no, no,   no

C7                                
Say you don't need no diamond ring
    C7               
And I'll be satisfied
F7                                      
Tell me that you want the kind of things
     C7                  
That money just can't buy
G7               F7               
I don't care too    much for money
F7                 C7  
Money can't buy me love

             Em Am     Em Am
Can't buy me love,     love 
             Dm G  C7  
Can't buy me love  ohhh
שירים נוספים של The Beatles:
BlackBird Girl Yellow Submarine A Hard Day's Night Don't Let Me Down Ticket To Ride All Together Now Cry Baby Cry Oh! Darling She's leaving home
שירים נוספים מהקטגוריה Familiar Songs:
Lynyrd Skynyrd - Sweet Home Alabama
The Beach Boys - Good Vibrations
Madonna - Like a Prayer
Shocking Blue - Venus
The Beatles - Come Together
הודעה מהמערכת
כרגע אינך מופיע בתוצאות החיפוש של מערכת הכרויות הנגנים ב TAB4U.