הסתר פרסומות
הידעת ?
אין הידעת, הוסף ידיעה
אקורדים לשיר And I Love Her - The Beatles
דירוג: 5.94 הירשם ודרג!

The Beatles - And I Love Her

מחבר ומלחין: John Lennon and Paul McCartney
קטגוריה: Familiar Songs
Intro:

            F#m             E6             F#m
e|-------------------------------------------|
B|-------------------------------------------|
G|-------------------------------------------|
D|-------------------------------------------|
A|----7--6--4---------7--6--4--------7--6--4-|
E|-7---------------7--------------7----------|

F#m        C#m         F#m
I give her all my love    
             C#m  F#m
that's all I do      
F#m        C#m          A                 B7 
And if you saw my love     you'd love her too
  E       
I love her

In the next verse:

e|---------9--------------9------------9-----|
B|-----10-----10------10-----10-----9-----9--|
G|-11-------------11-------------9-----------|
D|-------------------------------------------|
A|-------------------------------------------|
E|-------------------------------------------|

e|-------9--------------9--------------9-----|
B|----9-----9-------10-----10------10-----10-|
G|-9------------11-------------11------------|
D|-------------------------------------------|
A|-------------------------------------------|
E|-------------------------------------------|

e|--------9-----------9-------------9-----|
B|-----9-----9-----9-----9------10-----10-|
G|--9-----------9-----------11------------|
D|----------------------------------------|
A|----------------------------------------|
E|----------------------------------------|

e|---------9------------9-----------9----|
B|-----10-----10-----9-----9-----9-----9-|
G|-11-------------9-----------9----------|
D|---------------------------------------|
A|---------------------------------------|
E|---------------------------------------|

e|---------9-------------9--------------11-----|
B|-----10-----10-----10-----10------10------10-|
G|--9-------------9-------------11-------------|
D|---------------------------------------------|
A|---------------------------------------------|
E|---------------------------------------------|

e|---------11------------9-----------9-----------9------|
B|-----10------10-----9-----9-----9-----9-----9-----9---|
G|-11--------------9-----------9-----------9-----------9|
D|------------------------------------------------------|
A|------------------------------------------------------|
E|------------------------------------------------------|

F#m          C#m        F#m           C#m  F#m
She gives me everything     and tenderly      
F#m         C#m          A               B7
The kiss my lover brings   she brings to me
      E          C#m
And I love her      

C#m         B    C#m             Abm  C#m
A love like ours     could never die     
C#m       Abm           B        B7
As long as I   have you near me    

F#m            C#m              F#m
Bright are the stars that shine    
            C#m  F#m
dark is the sky     
F#m         C#m          A            B7 
I know this love of mine   will never die
      E       
And I love her

Guitar Solo:

  Gm         Dm       Gm           Dm     Gm  
e|-------------------------------------------|
B|-------------------------------------------|
G|-----------9--7--10--------------9--9s7----|
D|--5--7--8---------------5--7--8------------|
A|-------------------------------------------|
E|-------------------------------------------|

            Dm     Bb Bb        C7       
e|--------------------------------------|
B|--------------------------------------|
G|----------9--7s10--10--7--------------|
D|-5--7--8------------------8--7--7s5---|
A|--------------------------------------|
E|--------------------------------------|

          F                     Gm  
e|---------------------------------|
B|---------------------------------|
G|---------------------------------|
D|-----------7---------------------|
A|--3--3--5--------3---------------|
E|--------------------5--3--1--1s3-|

Gm              Dm              Gm             Dm   Gm
Bright are the stars that shine    dark is the sky    
Gm          Dm           Bb            C7 
I know this love of mine    will never die
      F       
And I love her

Ending:

           Gm             F             Gm            D  
e|------------------------------------------------------|
B|------------------------------------------------------|
G|------------------------------------------------------|
D|------------------------------------------------------|
A|----8--7--5-------8--7--5-------8--7--5-------8--7--5-|
E|-8-------------8-------------8-------------8----------|
שירים נוספים של The Beatles:
Strawberry Fields Forever Here Comes The Sun Across The Universe While My Guitar Gently Weeps Hello, Goodbye Being For The Benefit Of Mr. Kite Hey Jude BlackBird Sexy Sadie Yesterday
שירים נוספים מהקטגוריה Familiar Songs:
Coldplay - Trouble
The Wannadies - You And Me Song
Backstreet Boys - Every Body
Blink 182 - All The Small Thing
Extreme - More Than Words
הודעה מהמערכת
כרגע אינך מופיע בתוצאות החיפוש של מערכת הכרויות הנגנים ב TAB4U.