הסתר פרסומות
הידעת ?
אין הידעת, הוסף ידיעה
אקורדים לשיר Upside Down - Jack Johnson
דירוג: 5.86 הירשם ודרג!

Jack Johnson - Upside Down

מחבר ומלחין: Jack Johnson
קטגוריה: Rock
Intro: x2

   E                     F#m            E 
e|---------------------------------------|
B|---------------------------------------|
G|-----4---------4--4h6------------------|
D|-4s6-------4s6---------4---4h6-4h6--4--|
A|---------------------------------------|
E|---------------------------------------|

E                               
Who's to say   what's impossible
     F#m                                   
Well they forgot  this world keeps spinning
         E           
And with each new day
                       F#m       
I can feel a change in everything
                             E            
And as the surface breaks reflections fade
                        F#m          
But in some ways they remain the same
                           E             
And as my mind begins to spread its wings
                        F#m  
There's no stopping curiosity

                               E      F#m   A
I want to turn the whole thing upside down   
              B                    E        F#m    A
I'll find the things they say just can't be found   
                B                E    F#m   A
I'll share this love I find with everyone    
               B               E        F#m   A
We'll sing and dance to mother nature's songs  
                  B              E  
I don't want this feeling to go away

Bridge:

   E                     F#m            E 
e|---------------------------------------|
B|---------------------------------------|
G|-----4---------4--4h6------------------|
D|-4s6-------4s6---------4---4h6-4h6--4--|
A|---------------------------------------|
E|---------------------------------------|

   E                     F#m              E  
e|------------------------------------------|
B|------------------------------------------|
G|-----4---------4--4h6---------------------|
D|-4s6-------4s6---------4-------2---2h4--2-|
A|---------------------------2s4------------|
E|------------------------------------------|

E                                          F#m      
Who's to say   I can't do everything  well I can try
                      E            
And as I roll along I begin to find
                          F#m           
Things aren't always just what they seem

                               E      F#m   A
I want to turn the whole thing upside down   
              B                    E        F#m    A
I'll find the things they say just can't be found   
                B                E    F#m   A
I'll share this love I find with everyone    
               B               E        F#m   A
We'll sing and dance to mother nature's songs  
                  B                   Abm           F#m  
This world keeps spinning and there's no    time to waste
        Abm           A                         B                  
Well it all    keeps spinning  and spinning and round and round and
E      F#m   A                        B            E        F#m      A
Upside down     who's to say what's impossible and can't be    found  
                  B              E  
I don't want this feeling to go away

Bridge:

   E                     F#m  
e|---------------------------|
B|---------------------------|
G|-----4---------4--4h6------|
D|-4s6-------4s6---------4---|
A|---------------------------|
E|---------------------------|

F#m              E     F#m
Please don't go away      
   F#m             A         E 
Is this how it's supposed to be
שירים נוספים של Jack Johnson:
You and Your Heart If I Had Eyes Posters Sexy Plexi News Inaudible Melody Breakdown Better Together Good People
שירים נוספים מהקטגוריה Rock:
Queen - We Are The Champions
Leonard Cohen - Everybody Knows
Augustana - Sweet And Low
U2 - With or without you
The Presidents of the United States of America - Peaches
הודעה מהמערכת
כרגע אינך מופיע בתוצאות החיפוש של מערכת הכרויות הנגנים ב TAB4U.