הסתר פרסומות
הידעת ?
אין הידעת, הוסף ידיעה
אקורדים לשיר Come Together - The Beatles
דירוג: 6.08 הירשם ודרג!

The Beatles - Come Together

מחבר ומלחין: John Lennon
קטגוריה: Rock | Familiar Songs
Intro (with drop D): x4

e|------------------|
B|------------------|
G|------------------|
D|------------------|
A|-----------8---5\-|
D|-0-0-3s5s7--------|

Versers (second guitar):

   D            A                               G  
e|---------|--|-----------------------------------|
B|-3-3-3-3-|--|-----------------------------------|
G|-2-2-4-4-|--|-2-2-2-2-2-2-2-2-2-2-2-2-2-2-2-2---|
D|-0-0-0-0-|x8|-2-2-4-4-2-2-4-4-2-2-4-4-2-2-2-2-5-|
A|---------|--|-0-0-0-0-0-0-0-0-0-0-0-0-0-0-0-0-5-|
E|---------|--|---------------------------------3-|

D                                               
Here come old flattop he come grooving up slowly
D                                          
He got   joo-joo eyeball he one holy roller
D       A                          
He got      hair down   to his knee
G                                          
Got to be a joker he just do what he please

Repeat Intro

D                                           
He wear no shoeshine he got toe-jam football
D                                      
He got monkey finger he shoot coca-cola
D      A                           
He say   "I know you,  you know me"
G                                             
One thing I can tell you is you got to be free

       B5     A5    G5  A5         D
Come together right now    over me  

Repeat Intro

D                                       
He bag production he got  walrus gumboot
D                                           
He got   ono sideboard he one spinal cracker
D       A                           
He got     feet down below  his knee
G                                                
Hold you in his armchair you can feel his disease

       B5     A5    G5  A5         D        
Come together right now    over me    right!
D5  
Come

Solo:

   A                                                       
e|--------------------------------------------------------|
B|-8b10---8b10-8b10b8-6-8b10------8b10----8b10-8b10b8-6---|
G|------------------------------------------------------9-|
D|--------------------------------------------------------|
A|--------------------------------------------------------|
D|--------------------------------------------------------|

               D     
e|------------------|
B|-------------8b10-|
G|-7b9-7b9b7-5------|
D|------------------|
A|------------------|
D|------------------|

Repeat Intro

D                                       
He roller-coaster he got   early warning
D                                      
He got   muddy water he one mojo filter
D       A                                
He say     "One and one and one is three"
G                                                
Got to be good looking 'cause he's so hard to see

       B5     A5    G5  A5         D
Come together right now    over me  

Repeat Intro

D                                                
Ohhh  come together   yeah   come together   yeah
D                                          
Come together   yeah   come together   yeah
D                                              
Come together   yeah   come together   yeahhhhh
D                                                        
Come together   yeahhhhh   ahhhhhh   come together   yeah
D                        
Come together   yeahhhhhh
שירים נוספים של The Beatles:
I've Just Seen A Face Bad to me When I'm Sixty Four Girl Drive My Car Things We Said Today Twist And Shout Something All you Need Is Love She's leaving home
שירים נוספים מהקטגוריה Rock:
Bob Dylan - Mama, You Been on My Mind
Avenged Sevenfold - So Far Away
The Beatles - This boy
Madness - House Of Fun
The Beatles - While My Guitar Gently Weeps
הודעה מהמערכת
כרגע אינך מופיע בתוצאות החיפוש של מערכת הכרויות הנגנים ב TAB4U.