הסתר פרסומות
הידעת ?
אין הידעת, הוסף ידיעה
אקורדים לשיר Come as you are - Nirvana
דירוג: 5.82 הירשם ודרג!

Nirvana - Come as you are

מחבר ומלחין: Kurt Cobain
קטגוריה: Rock | Familiar Songs
Intro And Verses:

          Em               D               
e|---|---------------------------------|--|
B|---|---------------------------------|--|
G|---|---------0---0----------2------2-|--|
D|-0-|-0-1-2-----2---2-2-1-0----0-0----|--|
A|---|---------------------------------|x4|
E|---|---------------------------------|--|

Em          D           Em         D            Em
Come as you are, as you were  as I want  you to be
     D            Em             D      Em
As a friend, As a friend   as an old enemy
          D           Em
Take your time, hurry up
              D               Em  
the choice is your's don't be late
       D          Em              D      Em G
Take a rest, as a friend,   as an old memoria
   Em G       Em G      Em G
memoria    memoria   memoria

Em                D               Em   
Come   doused and mud, soaked in bleach
     D           Em
as I want you to be
      D            Em           D       Em G
As a trend,  as a friend  as an old memoria 
   Em G       Em G      Em G  A
memoria    memoria   memoria   

Chorus:

A       C           A                 C
When I swear that I don't have a gun   
     A                 C
No I don't have a gun   
     A                 C
No I don't have a gun   

Solo:

First Guitar Repeat:

          Em               D               
e|---|---------------------------------|--|
B|---|---------------------------------|--|
G|---|---------0---0----------2------2-|--|
D|-0-|-0-1-2-----2---2-2-1-0----0-0----|--|
A|---|---------------------------------|x4|
E|---|---------------------------------|--|

Second Guitar:

e|---------|---------------------|
B|---------|---------------------|
G|-4-4-4-4-|--7-s9-9\4--7-s9-9\4-|
D|---------|---------------------|
A|---------|---------------------|
E|---------|---------------------|

e|----------------------------|--|
B|--------7----7--7-----------|--|
G|-7-s9-9-9b11b11-11-9--7-7\4-|x4|
D|----------------------------|--|
A|----------------------------|--|
E|----------------------------|--|

   Em G       Em G      Em G  A
memoria    memoria   memoria   

Repeat Chorus

     A                 C
No I don't have a gun   
     A                 C
No I don't have a gun   

Bridge:

        Em               D            
e|-----------------------------------|
B|-----------------------------------|
G|-----------0---0----------2------2-|
D|-0-0-1-2-----2---2-2-1-0----0-0----|
A|-----------------------------------|
E|-----------------------------------|

   Em D Em D     Em D Em
memoria       memoria   
שירים נוספים של Nirvana:
Where Did You Sleep Last Night Pennyroyal Tea Territorial Pissings Something in the way Heart-Shaped Box In Bloom Rape Me All Apologies Dumb Oh Me
שירים נוספים מהקטגוריה Rock:
Bryan Adams - Everything I Do I Do It For You
Radiohead - High And Dry
Kings Of Leon - Closer
Ellie Goulding, Major Lazer and Tarrus Riley - Powerful
Metallica - Turn the Page
הודעה מהמערכת
כרגע אינך מופיע בתוצאות החיפוש של מערכת הכרויות הנגנים ב TAB4U.