השירים שלי
השירים שלי
הסתר פרסומות
הידעת ? אין הידעת, הוסף ידיעה
אקורדים לשיר Sympathy For The Devil - Rolling Stones
דירוג: 6.02 הירשם ודרג!

Rolling Stones - Sympathy For The Devil

מחבר ומלחין: Mick Jagger and Keith Richards
קטגוריה: Guitar solo יש טעות בעריכה?
יש להתחבר על מנת לדווח על טעות הרשמה \ התחברות
 E                      D          
Please allow me to introduce myself
      A                 E    
I'm a man of wealth and taste
     E                 D              
I've been around for a long, long year
      A                      E    
Stole many a mans   soul and faith
E                    D           
And I was round when jesus christ
        A                   E   
Had his moment of doubt and pain
E                   D     
Made damn sure that pilate
           A    
Washed his hands
               E       B
and sealed his fate     

 B                 
Pleased to meet you
                  E   
hope you guess my name
           B           
But what's puzzling you
                    E   
is the nature of my game

E                  D         
I stuck around st. petersburg
       A                       E     
When I saw it was a time for a change
E                       D        
Killed the czar and his ministers
    A                  E   
Anastasia  screamed in vain
  E                    D            
I rode a tank   held a generals rank
          A              
When the blitzkrieg raged
        E              B
and the bodies stank    

 B                 
Pleased to meet you
                  E            
hope you guess my name, oh yeah
           B           
But what's puzzling you
                    E            
is the nature of my game, oh yeah

E                  
I watched with glee
           D               
while your kings and queens
           A          
Fought for ten decades
        E             
for the gods they made
E            
I shouted out
               D        
who killed the kennedys?
     A                 E         
When after all  it was you and me

E                  D          
Let me please introduce myself
      A                 E    
I'm a man of wealth and taste
    E                 D         
And I laid traps for troubadours
        A     
Who get killed
                       E    B
before they reached bombay   

 B                 
Pleased to meet you
                  E            
hope you guess my name, oh yeah
           B           
But what's puzzling you
                    E            
is the nature of my game, oh yeah

Solo:

   E                  D  A                   
e|-10b12b10---------------10b12b10----------|
B|----------8-10b12----------------8-10b12--|
G|------------------9----------------------9|
D|------------------------------------------|
A|------------------------------------------|
E|------------------------------------------|

  E                         D    
e|-----------------------10b12--|
B|----8-10-10b12----8-10--------|
G|--9-------------9-------------|
D|------------------------------|
A|------------------------------|
E|------------------------------|

    A               E                    
e|-17b19-17--15b17-------17p15-------17-|
B|-----------------17----------17-15----|
G|--------------------------------------|
D|--------------------------------------|
A|--------------------------------------|
E|--------------------------------------|

                        D                    
e|-17p15-------15------------15-17-17b19-17-|
B|-------17-15----15h17---17----------------|
G|------------------------------------------|
D|------------------------------------------|
A|------------------------------------------|
E|------------------------------------------|

              A                E         
e|-15-17-15---------17b19-17--17b19-17--|
B|----------17---17---------------------|
G|--------------------------------------|
D|--------------------------------------|
A|--------------------------------------|
E|--------------------------------------|

                         D               A
e|-15-17-15b17---------------------------|
B|-------------17-----17----17--17-17-17-|
G|---------------------------------------|
D|---------------------------------------|
A|---------------------------------------|
E|---------------------------------------|

                            E           
e|----15-17-17b19-17-15-17-15b17-------|
B|-17----------------------------17-15-|
G|-------------------------------------|
D|-------------------------------------|
A|-------------------------------------|
E|-------------------------------------|

                             B  
e|----15-17-15-----------------|
B|-17----------17--17--17------|
G|-----------------------------|
D|------------------------16\4-|
A|------------------------14\2-|
E|-----------------------------|

 B                 
Pleased to meet you
                  E            
hope you guess my name, oh yeah
              B         
But what's confusing you
                         E   
Is just the nature of my game
        E               D      
Just as every cop is a criminal
    A               E     
And all the sinners saints
   E             
As heads is tails
             D        
just call me   lucifer
             A                E    
Cause I'm in need of some restraint
          E                  D       
So if you meet me  have some courtesy
          A                  E    
Have some sympathy, and some taste
    E                     D         
Use all your well-learned politesse 
        A                E    
Or I'll lay your soul to waste
           B
um yeah     

 B                 
Pleased to meet you
                  E            
hope you guess my name, um yeah
           B           
But what's puzzling you
                    E    
is the nature of my game,
E                     
uuum mean it, get down

Bridge:
E D A E

E             D               A   
Woo, who   Oh yeah,    get on down
   E     D  A  E  D A E
Oh yeah                

        E               D   
Tell me baby, what's my name
        A                        E   
Tell me honey,   can ya guess my name
        E                 D   
Tell me baby,   what's my name
           A                     E   
I tell you one time,  you're to blame
     E          D       
Ooo, who   ooo, who, ooo
A        E    
who  all right
E              D                A
Ooo, who, who,   ooo, who, who   
A                E        
Ooo, who, who,   ooo, yeah
E                          D  
Ooo, who, who,   ooo, who, who
     A                E   
Ooo, yeah   what's my name
         E               D   
Tell me, baby, what's my name
          A                 E   
Tell me, sweetie, what's my name
          E                 D  
Ooo, who, who     ooo, who, who
          A                 E  
Ooo, who, who     ooo, who, who
          E   D                A
Ooo, who, who    ooo, who,, who  
              E      E   
Ooo, who, who    oh,, yeah

Ending:
E A E A x4
שירים נוספים של Rolling Stones:
Angie Satisfaction Ruby Tuesday Paint it, Black Start Me Up Gimme Sheleter You Can't Always Get What You Want As Tears Go By She's A Rainbow Wild Horses
שירים נוספים מהקטגוריה Guitar solo:
Guns N' Roses - Knocking On Heaven's Door
Jack Johnson - Posters
Pearl Jam - Yellow Ledbetter
David Bowie - Starman
Jack Johnson - Sexy Plexi
הודעה מהמערכת
כרגע אינך מופיע בתוצאות החיפוש של מערכת הכרויות הנגנים ב TAB4U.