השירים שלי
השירים שלי
הסתר פרסומות
הידעת ? אין הידעת, הוסף ידיעה
אקורדים לשיר Under the bridge - Red Hot Chili Peppers
דירוג: 5.88 הירשם ודרג!

Red Hot Chili Peppers - Under the bridge




עורך השיר: צוות TAB4U יש טעות בעריכה?
יש להתחבר על מנת לדווח על טעות הרשמה \ התחברות

קטגוריה: Rock Familiar Songs Guitar solo
Capo on 2nd fret

Intro:

e|---------------------------------|
B|-1-------1-----------------------|
G|-----0-----0---------1-------1---|
D|---2---2-----------------2-----2-|
A|-3-----------2-0-------2---2-----|
E|-----------------3-2-0-----------|

e|-------------------------------------------|
B|---------1-----------1h3p1-----------------|
G|-----------------0---------0-------1-------|
D|-2-0---------2-----2-------------------2---|
A|-----3-0-2h3---3-------------0h2-----2---2-|
E|-----------------------------0--h2-0-------|

e|-------------------------------------------|
B|-----------------------1-------------------|
G|-1-----------------0-----0---------1-------|
D|---2-2-0---------2---2-----------------2---|
A|---------3-0-2h3-----------2-0-------2---2-|
E|-------------------------------3-2-0-------|

e|--------------------------------|
B|------------------------1h3p1---|
G|1-------------------0---------0-|
D|--2-2-0---------2-----2---------|
A|--------3-0-2h3---3-------------|
E|--------------------------------|

e|-------------------------|
B|-------------------------|
G|-----1-------1-----1-----|
D|-2/4-----2-----2-----2---|
A|-0/2---2---2-----2-----2-|
E|-----0-------------------|

D           A        
Sometimes I feel like
  Bm           F#  G  
I don't have a partner
D           A         Bm       G    
Sometimes I feel like my only friend
       D      A      
Is the city I live in
    Bm      F# G  
the city of angels
D         A      Bm        G    Dmaj7
Lonely as I am together we cry       

I drive on her streets 'cause
she's my companion
I walk through her hills 'cause
she knows who i am
She sees my good deeds and
she kisses me windy
I never worry, now that is a lie

Chorus:

Em              D    A   
I don't ever want to feel
A      Em          
Like I did that day
Em                     D    A
Take me to the place i love  
A       Em            D  A
Take me all the way
Bm   F#   G     D A Bm G
Yeah yeah yeah          

It's hard to believe that
there's nobody out there
It's hard to believe that
I'm not alone
At least I have her love
the city she loves me
Lonely as I am together we cry

Repeat chorus

Bridge:
G Bb F Eb

Under the bridge downtown
Is where i drew some blood
Under the bridge downtown
I could not get enough

Under the bridge downtown
Forgot about my love
Under the bridge downtown
I gave my lifeee away...

Outro:

e|--------------------------0-----------------|
B|-------------3/10---3-1-1-1-----0---3-3-3-3-|
G|------------------3-3-2---2-2h3-2-0-4-4-3---|
D|-3/5h8-5\3/5------3-3-3---3-----3---5---3---|
A|--------------------------------------------|
E|--------------------------------------------|

e|--------------------------------|
B|-3h6p3---1-1-1-----------3-3-3--|
G|-------3-2---2-3-3h5p3---4-4-3--|
D|---------3---3---------5-5---3--|
A|--------------------------------|
E|--------------------------------|

e|-------------------------------------------|
B|-3-6p3---1-1-1-------3-3-3-3-----1-1-1---0-|
G|---3---3-2---2-2h3-0-4---3---5p3-2---2-3-0-|
D|---------3---3-------5---3---3---3---3---0-|
A|-----------------------------------------0-|
E|-----------------------------------------3-|
שירים נוספים של Red Hot Chili Peppers:
Right On Time Scar Tissue Breaking The Girl The Adventures Of Raindance Maggie Porcelain Higher Ground Can't Stop Dani California My Friends Savior
שירים נוספים מהקטגוריה Rock:
Bryan Adams - Everything I Do I Do It For You
Joe Cocker - With a little help from my friends
Aerosmith - Living On The Edge
Oasis - Wonderwall
Nirvana - The Man Who Sold The World
הודעה מהמערכת
כרגע אינך מופיע בתוצאות החיפוש של מערכת הכרויות הנגנים ב TAB4U.