הסתר פרסומות
הידעת ?
אין הידעת, הוסף ידיעה
אקורדים לשיר Pennyroyal Tea - Nirvana
דירוג: 5.94 הירשם ודרג!

Nirvana - Pennyroyal Tea

מחבר ומלחין: Kurt Cobain
קטגוריה: Rock
Intro:

e|0-----0---0---0-------0---0-0-0--------3-|
B|1-----1---1---1-1-----1---1-1-1-0------0-|
G|2-----2---2---2-2-----2---2-2-2-0--------|
D|2---2-------2---2---2-----------0--------|
A|0---------------0---------------0--------|
E|-------------------------------------3---|

e|--3---3---3--------------------------------|
B|--0---0---0---------------------2----------|
G|--------------0-----------------2-----2----|
D|----0---0-----0-----------2---2-------2----|
A|--------2-----------------0---------0---0-0|
E|--------3---------3-2-3-0------------------|

e|-------------------------------------------|
B|------------0-------0----------------------|
G|----2---2-2-0-------0-----0---0------------|
D|--2-2---2-2-0-------------0---0---0--------|
A|-------------------------------------------|
E|--------------3---3-----3---3---3---3-2-3-0|

Am                 G       
Im on my time with everyone
Am              G        C
I have very bad posture   

C          D             Bb  C
Sit and drink Pennyroyal Tea  
C           D                    Bb C
Distill the life thats inside of me  
C          D             Bb  C
Sit and drink Pennyroyal Tea  
C    D        Bb 
Im anemic royalty

Am                      G         
Give me a Leonard Cohen afterworld
Am             G         C
So I can sigh eternally   

C     D             Bb   C
Im so tired I cant sleep  
C    D          Bb    C
Im a liar and a thief  
C        D               Bb  C
Sit and drink Pennyroyal Tea  
C   D         Bb 
Im anemic royalty

Am                  G        
Im on warm milk and laxatives
Am                G       Am
Cherry-flavored antacids    
שירים נוספים של Nirvana:
Lithium Dumb About a Girl All Apologies Oh Me In Bloom Smells Like Teen Spirit Heart-Shaped Box Polly Where Did You Sleep Last Night
שירים נוספים מהקטגוריה Rock:
The Beatles - Ob-La-Di, Ob-La-Da
Lorde - Royals
Steppenwolf - Born to be Wild
The Buggles - Video Killed The Radio Star
Pink floyd - Breathe
הודעה מהמערכת
כרגע אינך מופיע בתוצאות החיפוש של מערכת הכרויות הנגנים ב TAB4U.