הסתר פרסומות »

אקורדים לשיר Lithium של Nirvana


RockFamiliar Songs
אין גירסה קלה
Intro:

e|-----------------------------------------------|
B|-----------------------------------------------|
G|----------------------------6---x--------------|
D|----------------------------6---x---------7----|
A|-----------------6--------4-------------7------|
E|--0----x---0---4-----x--0----------0--5-----0--|

e|-----------------------------------------------------|
B|-----------------------------------------------------|
G|-5-------5---5---5s7---7---------4---4--4s7---7------|
D|-5-------5---5---5s7---7---------4---4--4s7---7------|
A|-3-------3---3---3s5---5----0----2---2--2s5---5----0-|
E|-----------------------------------------------------|

E Abm  C#m    A       C  
I'm so happy 'cause today
     D         B        
I've found my friends...
 D            E   
They're in my head
E  Abm C#m       A       C           D      B    D
I'm so ugly, but that's okay, 'cause so are you...
  E    Abm       C#m    
We've broken our mirrors
A      C          D    B       D     E   
Sunday morning is everyday for all I care
    Abm     C#m   
And I'm not scared
A        C        D        
Light my candles, in a daze
   B            D    
'Cause I've found god

         E   Abm C#m       A       C    D B   D     
Hey, hey hey         Hey, hey hey  Hey,   hey hey x2

I'm so lonely, but that's okay, I shaved my head...
And I'm not sad
And just maybe I'm to blame for all I've heard...
But I'm not sure
I'm so excited, I can't wait to meet you there...
But I don't care
I'm so horny, but that's okay...
My will is good

Hey, hey hey...

Chorus:

A C         A       C      A   
I like it - I'm not gonna crack
A C          A       C      A   
I miss you - I'm not gonna crack
A C          A       C      A   
I love you - I'm not gonna crack
A C            A       C      B    D
I killed you - I'm not gonna crack  

I'm so happy 'cause today
I've found my friends... 
They're in my head
I'm so ugly, but that's okay, 'cause so are you...
We've broken our mirrors (Alt: We broke our mirrors)
Sunday morning is everyday for all I care...
And I'm not scared
Light my candles in a daze...
'Cause I've found god

Hey, hey hey...
Bridge:
D E E D x2

Repeat Chorus
Bridge:
D E E D x2

Ending:
E D D E x2
Nirvana
Heart-Shaped BoxIn BloomPennyroyal TeaSomething in the wayWhere Did You Sleep Last NightBreedPollyYou Know You're RightCome as you areAbout a Girl
Rock
Black Lab - This Night
Scorpions - You And I
The Beatles - Anna (Go To Him)
Mark Ronson - Somebody To Love Me
Anouk - Nobody's Wife
הודעה מהמערכת
כרגע אינך מופיע בתוצאות החיפוש של מערכת הכרויות הנגנים ב TAB4U.