הסתר פרסומות
הידעת ?
אין הידעת, הוסף ידיעה
אקורדים לשיר No Quarter - Led Zeppelin
דירוג: 6.04 הירשם ודרג!

Led Zeppelin - No Quarter



קטגוריה: Undefined
Intro: x4

e|--------------------------------|
B|--------------------------------|
G|--------------------------------|
D|-----6-6-6------6-6-6------6----|
A|-2s4--------2s4--------2s4---2--|
E|--------------------------------|

e|----------------------------|
B|----------------------------|
G|----------------------------|
D|------------------------2---|
A|------4-4-4-2-------2-----4-|
E|-1s2------------1s2---4-----|

 C#m                              
Close the door, put out the light.
C#m                                 
You know they won't be home tonight.
C#m                                    
The snow falls hard and don't you know?
C#m                                
The winds of Thor are blowing cold.
C#m                                      A   
They're wearing steel that's bright and true 
     A                          D     
They carry news that must get through.
                                   C#m 
They choose the path where no-one goes.

Bridge: x4

  C#m                              
e|--------------------------------|
B|--------------------------------|
G|--------------------------------|
D|-----6-6-6------6-6-6------6----|
A|-2s4--------2s4--------2s4---2--|
E|--------------------------------|

  C#m                          
e|----------------------------|
B|----------------------------|
G|----------------------------|
D|------------------------2---|
A|------4-4-4-2-------2-----4-|
E|-1s2------------1s2---4-----|
They hold no quarter.... 

 C#m                            
Walking side by side with death,
C#m                             
The devil mocks their every step
    C#m                                  
The snow drives back the foot that's slow
C#m                              
The dogs of doom are howling more
                                A    
They carry news that must get through
                            D  
To build a dream for me and you
                                  C#m  
They choose the path where no-one goes.

Repeat Bridge x4

They hold no quarter. They ask no quarter.
The pain, the pain without quarter.
They ask no quarter. 
The dogs of doom are howling more!
שירים נוספים של Led Zeppelin:
Houses Of The Holy Stairway To Heaven Communication Breakdown
שירים נוספים מהקטגוריה Undefined:
Alanis Morissette - Forgiven
AC/DC - Ain't Nosie Pollution
ABBA - Ring Ring
Massive Attack - Protection
System Of A Down - Drugs
הודעה מהמערכת
כרגע אינך מופיע בתוצאות החיפוש של מערכת הכרויות הנגנים ב TAB4U.