הסתר פרסומות
הידעת ?
אין הידעת, הוסף ידיעה
אקורדים לשיר Inaudible Melody - Jack Johnson
דירוג: 6 הירשם ודרג!

Jack Johnson - Inaudible Melody



קטגוריה: Pop | Guitar solo
Intro:

   F#               C#7  Ebm                  Bb7 
E|-2--2-2h4p2---2--------6-----6-6h9p6---6----6--|
B|-2----------2---x------6h7-----------6---x--6--|
G|-3--------------x--4---6h8---------------x--7--|
D|-4--------------x--3---6h8---------------x--6--|
A|-4--------------x--4---6-----------------x--8--|
E|-2------------------------------------------6--|

    B                 Bbm   Abm7  
E|--7--7-7h9p7---7----6--|--4----|
B|--7----------7---x--6--|--4----|
G|--8--------------x--6--|--4----|
D|--9--------------x--8--|--4----|
A|--9--------------x--8--|--6----|
E|--7-----------------6--|--4----|

E|---------------------2--5p2-2----------------|
B|----------3s5-3s5----2---------2-------------|
G|----------4s6-4s6----2-----------4--4--2--2--|
D|---------------------------------------------|
A|---------------------------------------------|
E|-0--1--2-------------------------------------|

E|-------------------------------------------|
B|-------3s5-3s5-----------------------------|
G|-------4s6-4s6---4b5b4-2---2h4---2---------|
D|-2-3-4-------------------4-----------2-3-4-|
A|-------------------------------------------|
E|-------------------------------------------|

                      C#7 
E|-----------2---5p0-----|
B|-3s5-3s5---2-----------|
G|-4s6-4s6---2--------4--|
D|--------------------3--|
A|--------------------4--|
E|-----------------------|

          F#                      B            
Brushfire fairytales   Itsy bitsy diamond rings
        F#                         B          
Big fat hurricanes    Yellow belly given names
                    C#          
Well shortcuts can slow you down
            B             
And in the end we're bound
                  F# C#7
To rebound off of we    

                  F#            
Well dust off your thinking caps
              B             
Solar powered plastic plants
                   F#           
Pretty pictures of things we ate
             B          
We are only what we hate
                C#               
But in the long run we have found
                 B            
Silent films are full of sound
          F# C#7
Inaudibly free  

Chorus:

F#                       Bb              
Slow down everyone you're moving too fast
B                                  Ab7             
Frames can't catch you when you're moving like that

F#                
Inaudible melodies
     Bb                     
Some narration or strategies
B                
Unobtrusive tones 
        Ab7                        
Help to notice nothing but the zone
   F#              
Of visual relevancy
Bb                            
Framelines tell me what to see
 B                       
Choppin' like an axe well
      Ab7                           
Maybe eyes instead Should just relax

Repeat Chorus

Solo:

   F#            Bb                  
e|-11-14-11-11---11--11-14-11-------|
B|-11------------11----------14-11--|
G|----------------------------------|
D|----------------------------------|
A|----------------------------------|
E|----------------------------------|

   B7                  Ab              
e|-11--11-14-11--------11-11-11-11-14-|
B|-11----------14-12---11-------------|
G|------------------------------------|
D|------------------------------------|
A|------------------------------------|
E|------------------------------------|

F#                                 
Well Plato's cave is full of freaks
Bb                                           
Demanding refunds for the things they've seen
  B7                     
I wish they could believe
           Ab7               G                       
in all the things that never made the screen and just

Repeat Chorus x2

Repeat Intro
שירים נוספים של Jack Johnson:
Better Together Good People You and Your Heart If I Had Eyes Posters Sexy Plexi Upside Down Breakdown News
שירים נוספים מהקטגוריה Pop:
Adele - Lovesong
Sean Paul, Clean Bandit and Anne-Marie - Rockabye
Britney Spears - Toxic
Diana Ross - Do You Know Where You're Going To
Nelly Furtado and James Morrison - Broken Strings
הודעה מהמערכת
כרגע אינך מופיע בתוצאות החיפוש של מערכת הכרויות הנגנים ב TAB4U.