הסתר פרסומות »

אקורדים לשיר Time of your life של Green day

אין גירסה קלה
Intro:

e|---------------------|
B|---------------------|
G|-----0-----------0---|
D|---0---0-------0---0-|
A|---------------------|
E|-3-----------3-------|

Verse: 1 & Intro

  G                                  
e|----------------------------------|
B|----------3---------------3-------|
G|------------0---0-----------0-----|
D|-----0--------0------0--------0---|
A|----------------------------------|
E|--3---------------3---------------|

   Cadd9               Dadd9          
e|-----------------------------------|
B|---------3-----------------3-------|
G|------------0-----0----2-----2---2-|
D|-----2---------2----0----------0---|
A|--3--------------------------------|
E|-----------------------------------|

Verse 2:

   Em            Dadd9               
e|----------------------------------|
B|-------0--------------3-----------|
G|---------0---0-----2----2---2-----|
D|----2------2----0---------0-------|
A|--2-------------------------------|
E|--0-------------------------------|

    Cadd9             G               
e|-----------------------------------|
B|----------3----------------3-------|
G|------------0---0------------0---0-|
D|-----2--------2-------0--------0---|
A|--3--------------------------------|
E|--------------------3--------------|

Chorus:

  Em              G                Em             
e|-------------------------------|---------------|
B|--------0--------------3-------|-------0-------|
G|----------0---0----------0---0-|---------0---0-|
D|----2-------2-------0------0---|----2------2---|
A|-------------------------------|---------------|
E|-0---------------3-------------|-0-------------|

    G               Em            Dadd9           
e|----------------|------------------------------|
B|-------3--------|-------0-------------3--------|
G|---------0---0--|---------0---0----2----2---0--|
D|----0------0----|----2------2---0---------0----|
A|----------------|------------------------------|
E|--3-------------|-0----------------------------|

Verse1 :

 G                      Cadd9             Dadd9 G
Another turning point a fork stuck in the road  
G                           
Time grabs you by the wrist
 Cadd9             Dadd9  Em
directs you where to go     

Verse 2:

Em          Dadd9         Cadd9              G  Em
So make the best of these days and don't ask why  
Em          Dadd9         Cadd9             G   
It's not a question but a lesson learned in time

Verse: 3

     Em             G       
It's something unpredictable
    Em              G    
but in the end it's right
  Em           
I hope you have
    D            G     C9 Dadd9 G C9 Dadd9 G
the time of your life.                

Chorus:

G                          
So take the photographs and
 Cadd9              Dadd9  G
stillframes in your mind  
G                      Cadd9            Dadd9  Em
Hang it on a shelf and goodav than good times   

Verse 2:

Em         Dadd9        Cadd9      G    Em
Tatoos and memories and asking on trial   
Em            Dadd9        Cadd9         G    
For what it's worth it was worth all the while

Repeat Chorus

Solo:

   G           C9  Dadd9 G            Cadd9 Dadd9 G
e|-7-8-10--8-7-8----------7-8-10--8-7-8---10-10---|
B|-----------------10-----------------------------|
G|------------------------------------------------|
D|------------------------------------------------|
A|------------------------------------------------|
E|------------------------------------------------|

         Cadd9          Dadd9   G              
e|--14s15-14-12-------------------------------|
B|---------------15-12-13--12-----------------|
G|----------------------------14---12-14------|
D|---------------------------------------12---|
A|--------------------------------------------|
E|--------------------------------------------|

                  Cadd9     Dadd9 Em        D  C 
e|---7-8-10--8-7--8--7-------------7------------|
B|---------------------10---8-7-------10-8-10---|
G|------------------------------7---------------|
D|----------------------------------------------|
A|----------------------------------------------|
E|----------------------------------------------|

  C      Dadd9   Em  D   C     G  
e|--------7----------------------|
B|--8--10--------7---------------|
G|-------------------9----7----9-|
D|-------------------------------|
A|-------------------------------|
E|-------------------------------|
Bridge:
Em Cadd9 G Cadd9 x2

Repeat Chorus x2
Bridge:
Em Cadd9 G Cadd9 x2

Ending:
G Cadd9 Em Cadd9 x2
Green day
Oh Love21 GunsBoulevard Of Broken DreamsThe Saints Are ComingWelcome To ParadiseWaitingAmerican IdiotWake Me Up When September EndsHolidayBascet Case
Rock
Red Hot Chili Peppers - Snow
Pink floyd - Breathe
Queen - Don't Stop Me Now
The Doors - People are Strange
Phil Collins - In The Air Tonight
תגובות לTime of your life
התחבר להגיב - הרשמה \ התחברות
הודעה מהמערכת
כרגע אינך מופיע בתוצאות החיפוש של מערכת הכרויות הנגנים ב TAB4U.