הסתר פרסומות
הידעת ? אין הידעת, הוסף ידיעה
אקורדים לשיר Rise Up - Yves Larock
דירוג: 5.94 הירשם ודרג!

Yves Larock - Rise Up



קטגוריה: Familiar Songs House
Intro: x16

   Am                C                   
e|-5--5--5--5--5-----8--8--8--8--8--8---|
B|-5--5--5--5--5-----8--8--8--8--8--8---|
G|-5--5--5--5--5-----9--9--9--9--9--9---|
D|-7--7--7--7--7-----10-10-10-10-10-10--|
A|--------------------------------------|
E|--------------------------------------|

    Em                             
e|--7--7--7--7--7--7--7--7--7--7--|
B|--8--8--8--8--8--8--8--8--8--8--|
G|--9--9--9--9--9--9--9--9--9--9--|
D|--9--9--9--9--9--9--9--9--9--9--|
A|--------------------------------|
E|--------------------------------|

    Am          C 
My dream is to fly
         Em             
Over the rainbow so high
x2

    Am             C
My dream is to fly  
                    Em  
Over the rainbow so high
x2

Bridge: x8

   Am              C                 Em   
e|-12-10-8-10-12------12-10-8-10---------|
B|-------------------------------12------|
G|---------------------------------------|
D|---------------------------------------|
A|---------------------------------------|
E|---------------------------------------|

                                Am
e|-12-10-8-10-10----12-10--8-----|
B|----------------------------10-|
G|-------------------------------|
D|-------------------------------|
A|-------------------------------|
E|-------------------------------|
eh.. eh.. eh..     over the rainbow so high.

    Am          C 
My dream is to fly
         Em             
Over the rainbow so high
x2

    Am             C
My dream is to fly  
                    Em  
Over the rainbow so high
x2

Am      C                Em        
Rise Up    don't falling down again
Am      C               Em              
Rise Up    long time I broke the chains.

          Am            C                   Em   
I try to fly a while so high   direction's sky x2

    Am          C 
My dream is to fly
         Em             
Over the rainbow so high
x2

    Am             C
My dream is to fly  
                    Em  
Over the rainbow so high
x2
שירים נוספים של Yves Larock:
שירים נוספים מהקטגוריה Familiar Songs:
Ray Charles - I Got A Woman
Pink - Don't Let Me Get Me
Massive Attack - Teardrop
The Doors - Hello I Love You
Guns N' Roses - Knocking On Heaven's Door
הודעה מהמערכת
כרגע אינך מופיע בתוצאות החיפוש של מערכת הכרויות הנגנים ב TAB4U.