הסתר פרסומות
הידעת ?
אין הידעת, הוסף ידיעה
אקורדים לשיר Man in The Box - Alice In Chains
דירוג: 5.9 הירשם ודרג!

Alice In Chains - Man in The Box



קטגוריה: Rock | Guitar solo
Intro:

e|------------------------------|
B|------------------------------|
G|------------------------------|
D|--------9---9--9-----9---9-9--|
A|--------7---7--7-----7---7-7--|
E|-0-12/--0---0--0--0--0---0-0--|

e|-------------------------------------|
B|-------------------------------------|
G|-------------------------------------|
D|----9---9-9------9---9-9----------9--|
A|----7---7-7------7---7-7-------5--7--|
E|-0--0---0-0---0--0---0-0---5h7----0--|

E5                             
Ya ya ya ha ya ya ya ya yooo x2

E5                   
Im the man in the box
E5               
Buried in my shit
G                 E5              
Wont you come and save me, save me

Chorus:

Em   G    D     A                Em   
Feed   my eyes, can you sew them shut?
Em    G   D       A             Em
Jesus   christ, deny your maker   
Em  G      D     A               Em
He    who tries, will be wasted    
Em   G     D      A                   Em  
Feed    my eyes   now youve sewn them shut

E5                             
Ya ya ya ha ya ya ya ya yooo x2

E5                      
Im the dog who gets beat
E5                   
Shove my nose in shit
G                 E5              
Wont you come and save me, save me

Repeat Chorus

Solo:

e|---------------------------------------------------|
B|---------------------------------------------------|
G|---------------------------------------------7h9b12|
D|----------------------------------------7h9--------|
A|-5h7p5h7p5h7p5h7p5h7p5h7p5h7p5h7p5h7p5-------------|
E|---------------------------------------------------|

e|-----------------------------------------------|
B|------------------------10b12b12b12b12b12b12b12|
G|-9-7-------------------------------------------|
D|-----9-8-7----7-7b8b7~-------------------------|
A|-----------10----------------------------------|
E|-----------------------------------------------|

e|--------------------------------------------------|
B|-10h11p10p8---------12-15p12----12-15p12----12-15~|
G|------------9---/14----------14----------14-------|
D|--------------------------------------------------|
A|--------------------------------------------------|
E|--------------------------------------------------|

e|-12-15-15b18---15-12---------------------------|
B|-----------------------------------------------|
G|---------------------14~-14b16-----------------|
D|------------------------------------x-x-5------|
A|--------------------------------5h7-------7~---|
E|-----------------------------------------------|

e|---------7----------7-6-----------------------10-|
B|-----8-----10-8---------10-8-10~----8h10-8-------|
G|-7h9------------9~-------------------------9-----|
D|-------------------------------------------------|
A|-------------------------------------------------|
E|-------------------------------------------------|

e|----12h15-15b17--17b15p12---------x-|
B|--------------------------15~-----x-|
G|----------------------------------x-|
D|----------------------------------x-|
A|----------------------------------x-|
E|----------------------------------x-|

e|---------x-------------------------|
B|---------x-------------------------|
G|---------x-------------------------|
D|---------x---5h7p5-----------------|
A|-----7~--x------------7--5--7------|
E|-5h7-----x---------------------3-0-|

Repeat Chorus
שירים נוספים של Alice In Chains:
Would Alone Right Turn Nutshell Down In A Hole Them bones Rooster
שירים נוספים מהקטגוריה Rock:
Adele - Set Fire To The Rain
Oasis - Go Let It Out
Nirvana - About a Girl
Tears for Fears - Shout
OneRepublic - Love Runs Out
הודעה מהמערכת
כרגע אינך מופיע בתוצאות החיפוש של מערכת הכרויות הנגנים ב TAB4U.