אקורדים לשיר Can't Help Falling In Love של Elvis Presley


PopFamiliar SongsLove Songs
אין גירסה קלה
Intro:

e|-----0-------------------0---3-0----|
B|----1-1------3-------1----1------1--|
G|---0---0----4-4-----0-0----0--------|
D|-----------5---5---2---2------------|
A|--3---------------3-----------------|
E|----------3-------------------------|

Verse1:

e|----0---------------0------0---|
B|---1-1------3------1-1----1-1--|
G|--0---0----4-4----0---0--0---0-|
D|----------5---5----------------|
A|-3---------------3------3------|
E|---------3---------------------|

e|----1------0-----------------|
B|---1-1----1-1-----3------3---|
G|--2---2--0---0---4-4----4-4--|
D|----------------5---5--5---5-|
A|--------3--------------------|
E|-1-------------3------3------|

Verse2:

e|------------------0-------1------0---|
B|----1------3-----1-1-----3-3----1-1--|
G|---2-2----4-4---2---2---2---2--0---0-|
D|--3---3--5---5--------0--------------|
A|---------------0--------------3------|
E|-1------3----------------------------|

e|---------------0---3-0---|
B|----3------1----1------1-|
G|---4-4----0-0----0-------|
D|--5---5--2---2-----------|
A|--------3----------------|
E|-3-----------------------|

Verse3:

e|------------------0-------1---|
B|----1------3-----1-1-----3-3--|
G|---2-2----4-4---2---2---2---2-|
D|--3---3--5---5--------0-------|
A|---------------0--------------|
E|-1------3---------------------|

e|----0--------------0-------0---|
B|---1-1-----3------1-1-----1-1--|
G|--0---0---4-4----0---0---0---0-|
D|---------5---5-----------------|
A|-3-------------3-------3-------|
E|--------3----------------------|

Chorus:

e|------------------|--|-------------------1----------|
B|-----0-------1----|--|----0-------2-----3-3-----3---|
G|----0-0-----2-2---|--|---0-0-----0-0---2---1---4-4--|
D|---2---2---2---2--|x3|--2---2---2---2-0-------5---5-|
A|----------0-------|--|---------0--------------------|
E|-0----------------|--|-0---------------------3------|

C    G   C         F     C    G    G7
Wise men say  only fools rush in     
    F G     Am   Dm         C    G    C  
But i can't help falling in love with you
C     G  C             F  C G    G7
Shall i stay  would it be a sin    
   F  G     Am   Dm         C    G    C  
If i  can't help falling in love with you

Chorus:

Em           Am   
like a river flows
Em            Am 
surely to the sea
Em            Am  
darling so it goes
Em               A7       Dm   G7
some things were meant to be     

Take my hand  take my whole life to
cause i can't help falling in love with you

Repeat Chorus
Bridge:
C F C F x4

Take my hand  take my whole life to
cause i can't help falling in love with you x2
Bridge:
C F C F x4

Ending:
C F C F x4
Elvis Presley
Always On My MindJailhouse RockOnly YouIt's now or neverLove Me Tender
Pop
Sia - Alive
Sia - Fair Game
Mr. Big - To Be With You
The Beatles - Eleanor Rigby
The Beatles - Across The Universe
תגובות לCan't Help Falling In Love
התחבר להגיב - הרשמה \ התחברות
הודעה מהמערכת
כרגע אינך מופיע בתוצאות החיפוש של מערכת הכרויות הנגנים ב TAB4U.