הסתר פרסומות
הידעת ?
אין הידעת, הוסף ידיעה
אקורדים לשיר Breaking The Girl - Red Hot Chili Peppers
דירוג: 5.92 הירשם ודרג!

Red Hot Chili Peppers - Breaking The Girl



קטגוריה: Rock | Familiar Songs
Intro & Verses:

E|---0----0----0----0---|
B|---0----0----0----0---|
G|---6----9----11---6---|
D|---7----10---12---7---|
A|---7----10---12---7---|
E|---0----0----0----0---|

Verse 1:
I am a man cut from the know
Rarely do friends come and then go
She was a girl soft but estranged
We were the two our lives rearranged

   C         G        Am
Feeling so good that day
   C         G         F  
A feeling of love that day

e|---------------0-0-0--3-3-3-|
B|-1-1-1--3-3-3--1-1-1--0-0-0-|
G|-2-2-2--0-0-0--0-0-0--0-0-0-|
D|-2-2-2--0-0-0--2-2-2--0-0-0-|
A|-0-0-0--2-2-2--3-3-3--2-2-2-|
E|----------------------3-3-3-|
twisting and turning...        

e|-0------0------0------0-----|
B|-0-0----0-0----0-0----0-0---|
G|-1-1-1--1-1-1--1-1-1--1-1-1-|
D|-2-2-2--0-0-0--0-0-0--0-0-0-|
A|-2-2-2--2-2-2--3-3-3--2-2-2-|
E|-0-0-0--0-0-0--0-0-0--0-0-0-|
breaking the girl...           

e|---------------0-0-0--3-3-3-|
B|-1-1-1--3-3-3--1-1-1--0-0-0-|
G|-2-2-2--0-0-0--0-0-0--0-0-0-|
D|-2-2-2--0-0-0--2-2-2--0-0-0-|
A|-0-0-0--2-2-2--3-3-3--2-2-2-|
E|----------------------3-3-3-|

e|-0------0------0------0-----|
B|-1------1------1------1-----|
G|-2-2----2-2----2-2----2-2---|
D|-3-3-3--3-3-3--3-3-3--3-3-3-|
A|-3-3-3--3-3-3--3-3-3--3-3-3-|
E|-1-1-1--1-1-1--1-1-1--1-1-1-|

Chorus:

Em           D/F#         G            Am     
Twisting and turning your feelings are burning
       B            B/E B/G B/F#
You're Breaking The Girl        
Em  D/F#  G   Am C   
She meant you no harm
Em              D/F#       G            Am   
Think you're so clever but now you must sever
       B            B/E B/E B/F#
You're Breaking The Girl        
Em D/F#  G  Am  C   
He loves no one else

Verse 2:
Raised by my dad, girl of the day.
He was my dad, that was the way.
She was a girl left alone
Feeling the need to make me her home.
I don't know what or why
the twilight of love had arrived

Twisting and turning your feelings are burning your

e|----------------------------------------------------|
B|----------------------------------------------------|
G|-5--5--5--5--7--7--7--7--9--9--9--9--12--12--12--12-|
D|-5--5--5--5--6--6--6--6--7--7--7--7---9---9---9---9-|
A|-x--x--x--x--x--x--x--x--x--x--x--x---x---x---x---x-|
E|-5--5--5--5--7--7--7--7--8--8--8--8--10--10--10--10-|

breaking the girl

e|10--10--10--10--10--10--10--10--10--10--10--10--10--10--10--10--10--10--10-|
B|-9---9---9---9---9---9---9---9---9---9---9---9---9---9---9---9---9---9---9-|
G|-9---9---9---9---9---9---9---9---9---9---9---9---9---9---9---9---9---9---9-|
D|-9---9---9---9---9---9---9---9---9---9---9---9---9---9---9---9---9---9---9-|
A|-7---7---7---7---7---7---7---7---7---7---7---7---7---7---7---7---7---7---7-|
E|-0---0---0---0---0---0---0---0---0---0---0---0---0---0---0---0---0---0---0-|

She          meant       you         no

e|----------------------------------------------------|
B|----------------------------------------------------|
G|-5--5--5--5--7--7--7--7--9--9--9--9--12--12--12--12-|
D|-5--5--5--5--6--6--6--6--7--7--7--7---9---9---9---9-|
A|-x--x--x--x--x--x--x--x--x--x--x--x---x---x---x---x-|
E|-5--5--5--5--7--7--7--7--8--8--8--8--10--10--10--10-|

harm

e|-8---8---8---8---8---8---8---8---8---8---8---8---8---8---8---8---8---8--|
B|-10--10--10--10--10--10--10--10--10--10--10--10--10--10--10--10--10--10-|
G|-8---8---8---8---8---8---8---8---8---8---8---8---8---8---8---8---8---8--|
D|-10--10--10--10--10--10--10--10--10--10--10--10--10--10--10--10--10--10-|
A|-8---8---8---8---8---8---8---8---8---8---8---8---8---8---8---8---8---8--|
E|-x---x---x---x---x---x---x---x---x---x---x---x---x---x---x---x---x---x--|

Repeat Chorus

e||------------------------||
B||-6--6--6--6--5--5--5--5-||
G||-8--8--8--8--7--7--7--7-||
D||-7--7--7--7--6--6--6--6-||
A||-8--8--8--8--7--7--7--7-||
E||------------------------||

e||-------------------------------------------------------||
B||-1--x--x--x--x--5--x--x--x--x--1--x--x--x--x--13-13-13-||
G||-2--x--x--x--x--5--x--x--x--x--2--x--x--x--x--10-10-10-||
D||-2--x--x--x--x--5--x--x--x--x--2--x--x--x--x--10-10-10-||
A||-0--x--x--x--x--3--x--x--x--x--0--x--x--x--x--10-10-10-||
E||-------------------------------------------------------||

e||-12-----12------12------12---------------------------------------------||
B||-13-13--13--13--13--13--13--13---12---13---12---13---12---13---12---13-||
G||----14------14------14------14---13---14---13---14---13---14---13---14-||
D||-----------------------------------------------------------------------||
A||-----------------------------------------------------------------------||
E||-----------------------------------------------------------------------||

Repeat Chorus

E|----0----7----8----7-----------------------|----0--|
B|----0----8----0----8-----------------------|----0--|
G|----6----7----0----7----7----7----7----7---|----0--|
D|----7---------0---------6----6----6----6---|----7--|
A|----7-----------------7-7--0------7----7---|--8-8--|
E|--0----7----8----7--------------8----0-----|-------|

Outro:

E|---0----8----7----0---|
B|---0----0----8----0---|
G|---6----0----7----6---|
D|---7----0----0----7---|
A|---7----7----0----7---|
E|---0--7-8----7----0---|

E|---0----7----8----7---|
B|---0----8----0----8---|
G|---6----7----0----7---|
D|---7----0----0----0---|
A|---7----0----7----0---|
E|---0----7----8----7---|
שירים נוספים של Red Hot Chili Peppers:
Porcelain Right On Time Road Trippin' Give It Away Higher Ground Scar Tissue This Velvet Glove Around the World Get On Top Savior
שירים נוספים מהקטגוריה Rock:
David Bowie - Ashes To Ashes
The Beatles - This boy
Bananarama - Venus
Green day - American Idiot
The Beatles - Cry Baby Cry
הודעה מהמערכת
כרגע אינך מופיע בתוצאות החיפוש של מערכת הכרויות הנגנים ב TAB4U.