הסתר פרסומות
הידעת ? אין הידעת, הוסף ידיעה
אקורדים לשיר Oh Me - Nirvana
דירוג: 5.94 הירשם ודרג!

Nirvana - Oh Me



קטגוריה: Rock
Intro:

               E              Dadd9             
e|-------------0---------------0-------------0-|
B|-------------0---------------3-------------3-|
G|-------------1---------------2-------------2-|
D|-------2-----2----------2-0--0--------2-0--0-|
A|--0-2--------2------0-2-----------0-2--------|
E|4--------0---0----4-------------4------------|

         C          E         
e|-0-0---0--0-0--0--0--0-0--0|
B|-3-3---1--1-1--1--0--0-0--0|
G|-2-2---0--0-0--0--1--1-1--1|
D|-0-0---2--2-2--2--2--2-2--2|
A|-------3--3-3--3--2--2-2--2|
E|------------------0--0-0--0|

                   E   
If i had to lose a mile
                  D       
If i had to touch feelings
                D    C
I would lose my soul  
          E   
The way i   do

                E    
I don't have to think
               D    
I only have to do it
                       D     C
The results are always perfect
               E     
And that's old   news

                          E    
would you like to hear my voice
                C      D
sweetened with emotion  
D                E     
invented at your birth?

Chorus:

G       E         G      E 
i can't   see the end of me
   G       E       G      E  
my whole expanse i cannot see
              C       D
i formulate infinity   
    D               E         
and store it deep inside of me

Solo:

            E                    C     
e|-----------------------------3p2----|
B|---------------------3-3h5~------5--|
G|--------------2-4~------------------|
D|------2-2h4-------------------------|
A|--0-2-------------------------------|
E|4-----------------------------------|

           D       C       E            
e|-------2s5-5-5-3-2-------------------|
B|-3-5--5------------5p3-----------3-5~|
G|-----------------------4-2-2-2h4-----|
D|-------------------------------------|
A|-------------------------------------|
E|-------------------------------------|

                   E   
If i had to lose a mile
                  D       
If i had to touch feelings
                D    C
I would lose my soul  
          E   
The way i   do

(Repeat whole song)

              C      D
I formulate infinity  
    D               E         
and store it deep inside of me
שירים נוספים של Nirvana:
In Bloom Smells Like Teen Spirit All Apologies Polly Breed Where Did You Sleep Last Night You Know You're Right Rape Me Come as you are The Man Who Sold The World
שירים נוספים מהקטגוריה Rock:
U2 - Sunday Bloody Sunday
Mark Ronson and Daniel Merriweather - Stop Me
The Beatles - Twist And Shout
Passenger - Let Her Go
The Beatles - Drive My Car
הודעה מהמערכת
כרגע אינך מופיע בתוצאות החיפוש של מערכת הכרויות הנגנים ב TAB4U.