אקורדים לשיר All you Need Is Love של The Beatles


PopFamiliar Songs
אין גירסה קלה
Intro:

e|-----------------------------10----------|
B|--------------------10---10--------12----|
G|----------12---12---------------------12-|
D|-12-12-----------------------------------|
A|-----------------------------------------|
E|-----------------------------------------|

e|-------------------------------------|
B|----12-------------13------10--------|
G|-12-------12-------------------11-12-|
D|--------------14---------------------|
A|-------------------------------------|
E|-------------------------------------|

G      D/F#   Em  
Love   love   love
G      D/F#   Em  
Love   love   love
D7/A    G      D7/A
Love    love   love

E|----------------------------------|
B|----------------------------------|
G|----------------------------------|
D|--0-------------------0----0--2---|
A|-------3-----2---3----------------|
E|----------------------------------|

G                                    D/F#       Em
There's nothing you can do that can't be done     
G                                   D/F#        Em
Theres nothing you can sing that can't be sung    
D7/A                   G                      D/F#
Nothing you can say but you can learn to          
               D7/A
play the game      
D7/A    D7    
It's      easy

There's nothing you can make that can't be made
No one  you can save that can't be saved
Nothing you can do but you can learn how to be you in time
It's easy

Chorus:

G       A7      D7    G
All you need is love   
G       A7      D7    G
All you need is love   
G       B7       Em      G/D   C
All you need is love     love   
C       D7           G
Love is all you need  

There's nothing you can know that isn't known
Nothing you can see that isn't shown
Nowhere you can be that isn't where you're meant to be
Its easy

Repeat Chorus
Bridge:
D7/A G G G x2

C       D7           G
Love is all you need  
G       A7      D7  
All you need is love
D7               G         A7      D7  
All together now   All you need is love
D7                      G       A7    D7
Everybody now   All you need is love    
G       D            G   
Love is all you need   x4

Ending:
G G D7/A G x2
The Beatles
SomethingThe Long And Winding RoadTicket To RideHere Comes The SunShe's leaving homeFree As A BirdA Hard Day's NightTwist And ShoutLove me doThings We Said Today
Pop
Elton John - Friends Never Say Goodbye
R.E.M. - Drive
Tay G - PainKiller
Duffy - Warwick Avenue
Tracy Chapman - Fast Car
תגובות לAll you Need Is Love
התחבר להגיב - הרשמה \ התחברות
הודעה מהמערכת
כרגע אינך מופיע בתוצאות החיפוש של מערכת הכרויות הנגנים ב TAB4U.