הסתר פרסומות
הידעת ?
אין הידעת, הוסף ידיעה
אקורדים לשיר Smoke On The Water - Deep Purple
דירוג: 5.9 הירשם ודרג!

Deep Purple - Smoke On The Water



קטגוריה: Rock Familiar Songs Guitar solo
סרטונים:




Intro: x6
G5 Bb5 C5 G5 Bb5 C#5 C5 G5 Bb5 C5 Bb5 G5

    Gm                     
We all came out to montreux
              F     Gm      
On the lake geneva shoreline
    Gm                      F
To make records with a mobile
Gm                      
We didn’t have much time
    Gm                     
Frank zappa and the mothers
                   F     Gm  
Were at the best place around
    Gm                          
But some stupid with a flare gun
                 F      Gm    
Burned the place to the ground

 C            Ab     Gm         F Gm
Smoke on the water, fire in the sky 
 C            Ab  G
Smoke on the water 

Bridge:
Bb C G Bb C# C G Bb C Bb Gm x2

Solo:

   Gm                                           
e|----------10b8p6-----6---------6-6s8---------|
B|---6-~8----------~8--------6h8---------11--10|
G|-7-----------------------7-------------------|
D|---------------------------------------------|
A|---------------------------------------------|
E|---------------------------------------------|

  Gm                                     
e|--------------------------------------|
B|-8-10-8h10p8----8------------8----8---|
G|-------------10---10-8-10-10---10-----|
D|--------------------------------------|
A|--------------------------------------|
E|--------------------------------------|

  Gm                    C                      
e|------8----8--8---------8-------------------|
B|-8-11---11-------8-11-8---12-11-8-----------|
G|----------------------------------11-10-8---|
D|------------------------------------------10|
A|--------------------------------------------|
E|--------------------------------------------|

                  Gm                       
e|----------------------------------------|
B|----------------------------------------|
G|-11-10-8--------------------------8--7--|
D|---------10-8-7-----8--7--10--8---------|
A|----------------10----------------------|
E|----------------------------------------|

   Gm                                        
e|------------------------------------------|
B|------------------------------------------|
G|------------------------------------------|
D|-10--8h10p8~-----10--8--7--8--7--8--7-----|
A|---------------------------------------10-|
E|------------------------------------------|

    C                               
e|---------------------------------|
B|------8---8-8-6------------------|
G|-/7-7---7-------7-6-5------5-----|
D|-----------------------8------8--|
A|---------------------------------|
E|---------------------------------|

   Gm                                      
e|---------------------------------6-8b10-|
B|----------------------6-8----6-8--------|
G|-6s7-6s7--6s7-6s7---7------7------------|
D|----------------------------------------|
A|----------------------------------------|
E|----------------------------------------|

                         C                
e|-9s10--8--6--8--------6----6-8p6---8p6-|
B|---------------8---8-----8-------8-----|
G|---------------------------------------|
D|---------------------------------------|
A|---------------------------------------|
E|---------------------------------------|

            Gm                  C                           
e|---8p6-8--10-11-13--13b15-13b15---13-15--13--15--13-15-13|
B|-8-------------------------------------------------------|
G|---------------------------------------------------------|
D|---------------------------------------------------------|
A|---------------------------------------------------------|
E|---------------------------------------------------------|

                     F                        
e|-------------------------------------------|
B|-15--13-13b5-------------------------------|
G|----------------------10-------------------|
D|---------------10b12------10p8-----10--8---|
A|-------------------------------10--------10|
E|-------------------------------------------|

   F                      
e|-----------------------|
B|-------13-11-13-13b15--|
G|-10s12-----------------|
D|-----------------------|
A|-----------------------|
E|-----------------------|

       G  Bb  C   G   Bb  C# C    G Bb C Bb G
e|------------------------------------------|
B|-b15b15b15b15b15b15b14b14b14b14-----------|
G|----------------------------------10b12---|
D|------------------------------------------|
A|------------------------------------------|
E|------------------------------------------|

Bridge:
G Bb C G Bb C# C  G Bb C Bb G

    Gm                             
They burned down the gambling house
                 F    Gm   
It died with an awful sound
    Gm                             
Funky claude was running in and out
              F       Gm   
Pulling kids out the ground
     Gm             
When it all was over
                 F    Gm    
We had to find another place
     Gm                       
But swiss time was running out
                 F    Gm             
It seemed that we would lose the race

 C            Ab     Gm         F Gm
Smoke on the water, fire in the sky 
 C            Ab  G
Smoke on the water 

Bridge:
Bb C G Bb C# C G Bb C Bb Gm x2

We ended up at the grand hotel
It was empty cold and bare
But with the rolling truck stones thing just outside
Making our music there
With a few red lights and a few old beds
We make a place to sweat
No matter what we get out of this
I know we’ll never forget
Smoke on the water, fire in the sky
שירים נוספים של Deep Purple:
Hush
שירים נוספים מהקטגוריה Rock:
Green day - Holiday
Green day - 21 Guns
Radiohead - Creep
Aerosmith - Don't Wanna Miss A Thing
The Beatles - Love me do
הודעה מהמערכת
כרגע אינך מופיע בתוצאות החיפוש של מערכת הכרויות הנגנים ב TAB4U.