השירים שלי
ציבוריפרטי
השירים שלי
משתמש פרימיום
הסתר פרסומות
Jimi Hendrix - Purple Haze - Learn the Intro in the guitar
גלול לשם
גלול לשם
גלול לשם
גלול לשם
גלול לשם
גלול לשם
גלול לשם
גלול לשם
גלול לשם
גלול לשם

The Intro in the guitar:



e|------------------------------------------|
B|---------------------------------8--------|
G|-------------------------------7----------|
D|-8--8--8--8--8--8--8--8----8s9-----~7\----|
A|-7--7--7--7--7--7--7--7-------------------|
E|-0--0--0--0--0--0--0--0-------------------|

e|------------------------------------------------------|
B|---------------------------8--------------------------|
G|-------------------------7----------------------------|
D|-4s5-----------------8s9-----~7s-----4s5--------------|
A|-----5---5s7----10\----------------------5---5s7--10s-|
E|-------0-----------------------------------0----------|

e|----------------------------------|
B|----------------------------------|
G|----------------------------------|
D|------5-7-7b9-~5---5--------------|
A|----7----------------0--------10s-|
E|-----------------------0-~3-------|

e|-------------------------------------------|
B|---------------------------------------12\-|
G|---------------------------------------12\-|
D|------5-7b9--5h7~--5--------12-12-~14------|
A|-5--7----------------5-7s14------------12\-|
E|-------------------------------------------|

Intro - part 1



e||------------------------|
B||------------------------|
G||------------------------|
D||-8--8--8--8--8--8--8--8-|
A||-7--7--7--7--7--7--7--7-|
E||-0--0--0--0--0--0--0--0-|

Intro - part 2



e|----------------|
B|---------8------|
G|------7---------|
D|-8s9--------~7\-|
A|----------------|
E|----------------|

Intro - part 3



e|------------------|
B|------------------|
G|------------------|
D|-4s5--------------|
A|-----5---5s7--10\-|
E|-------0----------|

Intro - part 4



e|--------------|
B|--------------|
G|--------------|
D|---5-7-7b9-~5-|
A|-7------------|
E|--------------|

Intro - part 5



e|----------------|
B|----------------|
G|----------------|
D|-5--------------|
A|---0--------10\-|
E|-----0-~3-------|

Intro - part 6



e|------------------|
B|------------------|
G|------------------|
D|------5-7b9--5h7~-|
A|-5--7-------------|
E|------------------|

Intro - part 7



e|----------------------------|
B|------------------------12\-|
G|------------------------12\-|
D|-5--------12-12-~14---------|
A|---5-7s14---------------12\-|
E|----------------------------|

Intro - part 8



E7#9   G    A   E7#9    G    A  
e|-0-----3----5----0------3----5-|
B|-8-----3----5----8------3----5-|
G|-7-----4----6----7------4----6-|
D|-6-----5----7----6------5----7-|
A|-7-----5----7----7------5----7-|
E|-0-----3----5----0------3----5-|

Intro - part 9



e||----------------------------------||
B||----------------------8---------8-||
G||--------------------7---------7---||
D||-9s11--9---7----7s9-------7s9-----||
A||-7s9---7---5----------------------||
E||----------------------------------||
הודעה מהמערכת
כרגע אינך מופיע בתוצאות החיפוש של מערכת הכרויות הנגנים ב TAB4U.