השירים שלי
ציבוריפרטי
השירים שלי
משתמש פרימיום
הסתר פרסומות
Metallica - Nothing Else Matters - Learn the Solo in the Guitar
גלול לשם

The Solo in the Guitar



 

Step 1



Em                                 D                   C  
E||----------------------------------|-----------------------|
B||-15------15-----------------------|-----------------------|
G||-14b16---14b16b14-~12---12-14p12--|-11h12p11----11--------|
D||----------------------------------|----------14----12-~14-|
A||----------------------------------|-----------------------|
E||----------------------------------|-----------------------|

Step 2



Em                                    D         
E|------------------12-------12-------------------|
B|---------------12-------12----15-12----12-------|
G|-12-14-12---14b16----14b16----------15----15p14-|
D|------------------------------------------------|
A|------------------------------------------------|
E|------------------------------------------------|

          C               
E|-----------------------|
B|-------14----14s13-----|
G|-12----14----14s13-~12-|
D|----14-----------------|
A|-----------------------|
E|-----------------------|

Step 3



Em                   D                     C   
E|-14s15-14----15-14-17-|-15--14h15p14----15p14-----|
B|----------12----------|--------------12--------12-|
G|----------------------|---------------------------|
D|----------------------|---------------------------|
A|----------------------|---------------------------|
E|----------------------|---------------------------|

Step 4



G                    B                  Em            
E|-----------------------------|-12---------------------|
B|----------12--------------12-|-----15b17b15p12-15b17--|
G|-12-14-12-14b16-----12-14b16-|------------------------|
D|-----------------14----------|------------------------|
A|-----------------------------|------------------------|
E|-----------------------------|------------------------|
  Em
E|--------------------||
B|-12h15p12s7---5h7p5-||
G|--------------------||
D|--------------------||
A|--------------------||
E|--------------------||
הודעה מהמערכת
כרגע אינך מופיע בתוצאות החיפוש של מערכת הכרויות הנגנים ב TAB4U.