השירים שלי
ציבוריפרטי
השירים שלי
משתמש פרימיום
הסתר פרסומות
Arr.h.wallaco - Malaguena - Learn Malaguena in the Guitar
גלול לשם

Malaguena in the Guitar



 

Step 1



V  V ^ V ^ V  V ^ V ^ V  V ^ V ^ V  V ^ V ^ V  
e||-0--0-0-0-0-0--0-0-0-0-0--0-0-0-0-0--0-0-0-0-0-|
B||-0--0-0-0-0-0--0-0-0-0-0--0-0-0-0-0--0-0-0-0-0-|
G||-1--1-1-1-1-1--1-1-1-1-2--2-2-2-2-2--2-2-2-2-4-|
D||-2--2-2-2-2-2--2-2-2-2-3--3-3-3-3-3--3-3-3-3-5-|
A||-2--2-2-2-2-2--2-2-2-2-3--3-3-3-3-3--3-3-3-3-5-|
E||-0--0-0-0-0-0--0-0-0-0-0--0-0-0-0-0--0-0-0-0-0-|

   V ^ V ^ V  V ^ V ^ V  V ^ V ^ V  
e|-0-0-0-0-0--0-0-0-0-0--0-0-0-0-0-|
B|-0-0-0-0-0--0-0-0-0-0--0-0-0-0-0-|
G|-4-4-4-4-2--2-2-2-2-1--1-1-1-1-1-|
D|-5-5-5-5-3--3-3-3-3-2--2-2-2-2-2-|
A|-5-5-5-5-3--3-3-3-3-2--2-2-2-2-2-|
E|-0-0-0-0-0--0-0-0-0-0--0-0-0-0-0-|

Step 2



e|----0---0---0---0---0---0---0---0---0---0---0---0--|
B|----------0-----------0-------1---0----------------|
G|.-----1-----------1-------2-----------2---0-------.|
D|.-2-----------2-------------------------------3---.|
A|---------------------------------------------------|
E|---------------------------------------------------|

Step 3



e|---000---000---000---000---000---000---000---000---000---000---000---000-|
B|-------------0-----------------0-----------1-----0-----------------------|
G|.------1-----------------1-----------2-----------------2-----0----------.|
D|.-2----------------2-----------------------------------------------3----.|
A|-------------------------------------------------------------------------|
E|-------------------------------------------------------------------------|

Step 4



e|--0--0-1-0h1p0------0--0-1-0h1p0-------0--0-1-0h1p0-----0--0-1-0h1p0-----|
B|--0-------------0---0--------------0---1----------------1----------------|
G|.-1-----------------1------------------2-------------2--2-------------2-.|
D|.-2-----------------2------------------2----------------2---------------.|
A|--2-----------------2------------------0----------------0----------------|
E|--0-----------------0----------------------------------------------------|

Step 5



e|--0--0------------0--0------------0--0------------0--0------------|
B|--0----0-------0--0----0-------0--1----1-------1--1----1-------1--|
G|.-1------1---1----1------1---1----2------2---2----2------2---2---.|
D|.-2--------2------2--------2------2--------2------2--------2-----.|
A|--2---------------2---------------0---------------0---------------|
E|--0---------------0-----------------------------------------------|

Step 6



e|---0---0---0---0---0---0---0----0---0---0---0---1--|
B|---0---0---0---0---0---0---1----1---1---1---0---1--|
G|.--1---1---1---1---1---1---2----2---2---2---0---2-.|
D|.-------------------------------------------------.|
A|---------2-----------2---0----3---2---0------------|
E|-0---4-------0---4------------------------3---1----|

Step 7



e|-0-------------------------------------------------|
B|-0----0--1--3---1-0---3--1--0---1---0------1--0----|
G|-1----------1---1-1---1--1--1---2---2--2---2--2--2-|
D|-2----------2---2-2---2--2--2---3---3--3---3--3--3-|
A|-2-------------------------------------------------|
E|-0----------0---------0---------0----------0-------|

Step 8



e|------------------------------0---|
B|-------0-1-0-3-1-0---------0------|
G|---0-2-------------2-0-----1------|
D|-3---------------------3-2--------|
A|----------------------------------|
E|-0-----------0-----------0------0-|

Step 9



e|-------------------0-|
B|----------0--1--3--0-|
G|----0--2-----------1-|
D|-3--------------0--2-|
A|-------0--2--3-----2-|
E|-1--3--------------0-|

Step 10



e|--0-1-3-1-0----------0-----------------------|
B|----------0--0-3-1-0-1--------0-1-0-3-1-0----|
G|.---------1----------2--2-1-2-------------2-.|
D|.---------2----------3----------------------.|
A|----------2----------------------------------|
E|----------0----------------------------------|

Step 11



e|--------------------------------------------------|
B|--------------------------------------------------|
G|.------------------------------------------------.|
D|.--2---2---2---2---2---2---2---2---2---2---2---2-.|
A|---------2-----------2---0---3---2---0------------|
E|-0---4-------0---4-----------------------3---1----|

Step 12



e|-------------------------------------------------------------------------|
B|-------------------------------------------------------------------------|
G|.-----------------------------------------------------------------------.|
D|.-222---222---222---222---222---222---222---222---222---222---222---222-.|
A|------------2-----------------2-----0-----3-----2-----0------------------|
E|0-----4-----------0-----4-----------------------------------3-----1------|

Step 13



e|---------------------------------------------------------------------|
B|--------1-3p1p0----------0-1p0-------------0-------------------------|
G|.-----2---------2------0-------2p0-------2---2p0----------1---------.|
D|.---2----------------0-----------------3---------3------2---2p0-----.|
A|--0----------------------------------3----------------2---------3p2--|
E|-------------------3---------------1----------------0----------------|

Step 14



e|--------------------------------------------------------------------------|
B|--111---111---111---000---000---000---------------------------------------|
G|.-----------2-----------------0--------222---222---222---111---111---111-.|
D|.-----2-----------------0------------------------3-----------------2-----.|
A|-0-----------------------------------------3-----------------2------------|
E|------------------3------------------1-----------------0------------------|

Step 15



e|--0--0---0------0--0---0------0--0---0------0--0---0------|
B|--0----0-----0--0----0-----0--0----0-----0--0----0-----0--|
G|.-1--------1----1--------1----2--------2----2--------2---.|
D|.-2-------------2-------------3-------------3------------.|
A|--2-------------2-------------3-------------3-------------|
E|--0-------------0-------------0-------------0-------------|

Step 16



e|--0--0------------0--0------------0--0------------0--0------------|
B|--0----0-------0--0----0-------0--0----0-------0--0----0-------0--|
G|.-1------1---1----1------1---1----2------2---2----2------2---2---.|
D|.-2--------2------2--------2------3--------3------3--------3-----.|
A|--2---------------2---------------3---------------3---------------|
E|--0---------------0---------------0---------------0---------------|

Step 17



e|-----0----0-----0----0-----0-----0-----0-----0----0----0----0-----1-|
B|----0----0-----0----0-----0-----0-----1-----1----1----1----0-----1--|
G|.--1----1-----1----1-----1-----1-----2-----2----2----2----0-----2--.|
D|.------------------------------------------------------------------.|
A|------------2----------------2-----0-----3----2----0----------------|
E|--0----4----------0----4---------------------------------3-----1----|

Step 18



V ^ V ^ V  
e|-0---0h1p0-----------------------------------0-0-0-0-0-|
B|-0---------0h1p0-----------------------------0-0-0-0-0-|
G|-1---------------1h2p1-----------------------1-1-1-1-1-|
D|-2---------------------2h3p2-----------------2-2-2-2-2-|
A|-2---------------------------2h3p2-----------2-2-2-2-2-|
E|-0---------------------------------4h5p4-0---0-0-0-0-0-|
הודעה מהמערכת
כרגע אינך מופיע בתוצאות החיפוש של מערכת הכרויות הנגנים ב TAB4U.