הסתר פרסומות
הידעת ?
אין הידעת, הוסף ידיעה
אקורדים לשיר Hey Joe - Jimi Hendrix
דירוג: 6 הירשם ודרג!

Jimi Hendrix - Hey Joe



קטגוריה: Rock | Familiar Songs | Guitar solo
סרטונים:









Intro:

E|-0-0-0-----------0|------------------------|
B|-3s5-3-----------0|------------------------|
G|-------2p0--------|------------------------|
D|-----------2-----2|---2s5---5---4--2---2---|
A|---------------2--|---2s5---5---4--2---2---|
E|-------------0----|-0-----0---0------0---0-|

E|-----------------|
B|-----------------|
G|-----------------|
D|-----------------|
A|-----5-----5-----|
E|-5h7---5h7---7s0-|

C G      D A                      
Hey Joe, where you goin' with that
E                   C
gun in your hand?    
C G     D         A             
Hey Joe,  I said where you goin'
          E                 C
with that gun in your hand?  
C                G                  D
I'm goin down to shoot my old lady,  
            A                        
you know I caught her messin' 'round 
      E          
with another man.

E|---------------|
B|---------------|
G|---------------|
D|----------5----|
A|-----5------~7-|
E|-5s7----7------|

C                        G                  D
Yeah,! I'm goin' down to shoot my old lady,  
           A                        
you know I caught her messin' 'round
      E          
with another man.
                  E          
Huh! And that ain't too cool.
C   G      D A                      E         
Uh, hey Joe,  I heard you shot your woman down
                  E
you shot her down. 
C   G      D A                         E        
Uh, hey Joe,  I heard you shot you old lady down
                        E             
you shot her down to the ground. Yeah!
C      G                D
Yes, I did, I shot her,  
     A                               
you know I caught her messin' 'round,
E                   
messin' 'round town.
C         G                D
Uh, yes I did, I shot her   
           A                           E          
you know I caught my old lady messin' 'round town.
      E                               
And I gave her the gun and I shot her!

Solo:

   C                   G           
E|--------12----------------------|
B|-15b17-----15-12----------------|
G|-----------------14b16p12----12-|
D|--------------------------14----|
A|--------------------------------|
E|--------------------------------|

   D                A              
E|---------12---------------------|
B|-15b17------15-12---------------|
G|------------------14b16b16---14-|
D|--------------------------------|
A|--------------------------------|
E|--------------------------------|

            E                                      
E|------------------------------------------------|
B|----------------------------------------12------|
G|-12h14-12-------12----12\---------------12------|
D|----------14-------14------------12h14------14\-|
A|---------------------------12s14----------------|
E|------------------------------------------------|

     E                 C                         G  
E|---------------------12-12-12-------12-----------|
B|--15b17----15b17-----12-15-12-------12-15-----12-|
G|------------------------------14b16--------14----|
D|-------------------------------------------------|
A|-------------------------------------------------|
E|-------------------------------------------------|

                 D                       A        
E|--------------|----------12-15b17p15--12-------|
B|--------------|-------12-----------------------|
G|--------14-12-|-14b16--------------------14b16-|
D|-12h14--------|--------------------------------|
A|--------------|--------------------------------|
E|--------------|--------------------------------|

                        E                             
E|-----12------------|-------------------------------|
B|--15-12-15---------|------------------------12-----|
G|-----------14b16---|~12--------------9h11--~12-----|
D|-------------------|----14\----9h11------------14\-|
A|-------------------|-------------------------------|
E|-------------------|--------0----------------------|

   C       G         D       A        E  
E|-----------------|--------------------|
B|-----------------|--------------------|
G|-----------------|--------------------|
D|-----------------|--------------------|
A|-3---------2-3-4-|-5----------4-5-6-7-|
E|---0-1-2-3-------|---2-3-4-5----------|

 E     
Alright
C   G         D A                   E      
Ah! Hey Joe uh,  where you gonna run to now
E                      
where you gonna run to?
C   G      D A                      E      
Ah! Hey Joe  uh, where you gonna run to now
E                             
where you, where you gonna go?
 E         
Ah, dig it!
C          G             D A
I'm goin' way down south,   
        E                             
way down south to Mexico way! Alright!
C         G             D A              E             
I'm goin' way down south, way down where I can be free!

(where you gonna...)
Ain't no one gonna find me babe!
Ain't no hangman gonna,
(Hey, Joe)
he ain't gonna put a rope around me!
(Joe where you gonna..)
You better belive it right now!
(...go?) 
I gotta go now! 
Hey, hey, hey Joe, 
(Hey Joe) 
you better run on down! 
(where you gonna...) 
Goodbye everybody. Ow! 
(...go?) 
Hey, hey Joe, what'd I say, 
(Hey.......................Joe) 
run on down. 
(where you gonna go?) 
(Hey) 
Ah! Ah! 
(Joe where you gonna go?) 
Oh, alright. 
3rd verse 
Hey Joe, said now, 
(Hey) 
Yeah. 
(where you gonna go?) 
Hey Joe, I said, 
(Hey) 
where you goin' to run 
(Joe!) 
Well, dig it! 
(Joe) 
(...go?) 
שירים נוספים של Jimi Hendrix:
Purple Haze Angel Fire
שירים נוספים מהקטגוריה Rock:
Coldplay - The Scientist
Shawn Mendes - Mercy
Radiohead - Creep
The Beatles - All My Loving
The Beatles - In My Life
הודעה מהמערכת
כרגע אינך מופיע בתוצאות החיפוש של מערכת הכרויות הנגנים ב TAB4U.