הסתר פרסומות
הידעת ?
אין הידעת, הוסף ידיעה
אקורדים לשיר You Shook Me All Night Long - AC/DC
דירוג: 5.92 הירשם ודרג!

AC/DC - You Shook Me All Night Long



קטגוריה: Undefined
Intro:

e|-----------------------------------------------------------------------|
B|-8----10-8--8----8-7-----7----7-------7------8--10-8-8---8-7--------7--|
G|-7----7--7----7------7---7----7-------7------7--7--7---7------7-----7--|
D|-----------------------0-0----0-----------0----------------------0--0--|
A|----------------------------8----8^9----8------------------------------|
E|----------------------------------h------------------------------------|

Fig. 1: x5

e|----------------------------------------|
B|----------------------------------------|
G|.-----5-5-----5------7---------7-----7-.|
D|.5----5-5--5--5--5---7----5-5--7--5--7-.|
A|-5----3-3--5--3--5---5----5-5--5--5--5--|
E|-3---------3-----3--------3-3-----3-----|

Fill 1:

e|--------------------2-2-2-2-2-2-2-2-|
B|--------------------3-3-3-3-3-3-3-3-|
G|------5-5-----5-----2-2-2-2-2-2-2-2-|
D|-5----5-5--5--5--5--0-0-0-0-0-0-0-0-|
A|-5----3-3--5--3--5------------------|
E|-3---------3-----3------------------|

Verse - Fig. 1 5x,  Fill 1 1x:

She was a fast machine she kept her motor clean
She was the best damn woman that I ever seen
She had the sightless eyes telling me no lies
Knocking me out with those American thighs
Taking more than her share
Had me fighting for air
She told me to come but I was already there
'Cause the walls start shaking
The earth was quaking
My mind was aching
And we were making it

Fig. 2:

e|----3------------3------3----------2-----------3------3---|
B|----3------------3------3----------3-----------3------3---|
G|.---0---------0--0----0-0-0--2-----2--------0--0----0-0--.|
D|.---0---------------------------0--0---------------------.|
A|----x--0-2-3-------2------------------0-2-3------2--------|
E|-3--3-----------------------------------------------------|

Fill 2:

e|----3------------3------3-2-2-2-2-2-2-2-2-----------------2-2-2-2-2-2-2-2--|
B|----3------------3------3-3-3-3-3-3-3-3-3-3-3-3-3-3-3-3-3-3-3-3-3-3-3-3-3--|
G|.---0---------0--0----0-0-2-2-2-2-2-2-2-2-0-0-0-0-0-0-0-0-2-2-2-2-2-2-2-2-.|
D|.---0---------------------0-0-0-0-0-0-0-0-0-0-0-0-0-0-0-0-0-0-0-0-0-0-0-0-.|
A|----x--0-2-3-------2----------------------x-x-x-x-x-x-x-x------------------|
E|-3--3-------------------------------------3-3-3-3-3-3-3-3------------------|

Chorus - . Fig. 2 2x:

And you shook me all night long
Yeah you shook me all night long

Second Verse w/Rhy. Fig 1 5x, . Fill 1 1x:
Working double time on the seduction line
She's one of a kind she's just mine all mine
Wanted no applause it's just another course
Made a meal outta me
And come back for more
Had to cool me down to take another round
Now I'm back in the ring to take another swing
'Cause the walls were shaking the earth was quaking
My mind was aching
And we were making it

Second Chorus - . Fig. 2 5x, . Fill 2 1x:
And you shook me all night long
Yeah you shook me all night long
It knocked me out I said you
Shook me all night long
You had me shaking and you
Shook me all night long
Yeah you shook me
When you took me

Guitar Solo:

e|---------3-----------------------------------------------------------------|
B|-----------3-6-----------------------------5--------------------6-6----8-8-|
G|-5b7~~~--------5b7--5-3--------------------5-----------3b5----7------9-----|
D|------------------------5----5-3--------------5----5~~---------------------|
A|--------------------------5~-----5-3------------5--------------------------|
E|--------------------------------------6-3----------------------------------|

e|------------10------------------------------------------15-------------------|
B|---8--10b12----10-8--11b13-10b12--8---8~------18b20~~~-----15-18-------------|
G|-9----------------------------------9-----9----------------------17b19-15----|
D|--------------------------------------------------------------------------17-|
A|-----------------------------------------------------------------------------|
E|-----------------------------------------------------------------------------|

e|---------------------------------------------------------18b20~~-17b19r17-15-17----|
B|-------------18-------18-------15-------17-15-17-15-----------------------------17-|
G|-17-15-17b19----17b19----17b19----17b19-17-15-17-15--15----------------------------|
D|-----------------------------------------------------------------------------------|
A|-----------------------------------------------------------------------------------|
E|-----------------------------------------------------------------------------------|

e|15----------15----15--------------------15----15-15-17b19~~---15~~~~~--|
B|----18b20------18--------------------------17--------------------------|
G|----------------------17b19-15-17b19~~---------------------------------|
D|-----------------------------------------------------------------------|
A|-----------------------------------------------------------------------|
E|-----------------------------------------------------------------------|

Third Chorus - . Fig. 2 and  . Fill 2:

You really took me and you
Shook me all night long
Ah, you shook me all night long
Yeah yeah you shook me all night long
You really got me and you
Shook me all night long
Yeah you shook me
Yeah you shook me
All night long
שירים נוספים של AC/DC:
It's A Long Way Dog Eat Dog Cover You In Oil Girls Got Rhythm Big Balls Dirty Deeds Done Dirt Cheap Rock and Roll Damnation Ain't Nosie Pollution
שירים נוספים מהקטגוריה Undefined:
System Of A Down - Blue
Bob Dylan - Don't Think Twice
Acollective - Custom
Alanis Morissette - Can't Not
ABBA - I Have A Dream
הודעה מהמערכת
כרגע אינך מופיע בתוצאות החיפוש של מערכת הכרויות הנגנים ב TAB4U.