הסתר פרסומות
הידעת ?
אין הידעת, הוסף ידיעה
אקורדים לשיר Carol - הזבובים
דירוג: 5.96 הירשם ודרג!
                Dm
I heard you say...

Solo: x2

   Dm                    
e|----------------------|
B|-5-6--6-6---5-6--6-6--|
G|----------------------|
D|----------------------|
A|----------------------|
E|----------------------|

             Bb                 
e|-----------------------------|
B|-5-6-5---5-------------------|
G|-------7---7--7-7---5-7--7-7-|
D|-----------------------------|
A|-----------------------------|
E|-----------------------------|

                         A         
e|--------------------------------|
B|--------------------------------|
G|--5-7---7-7--5-7-5--------------|
D|-------------------7--5-7--7-7--|
A|--------------------------------|
E|--------------------------------|

C         E     Dm
Thats not Karol   
Dm        G 
Thats not me
C         E     Dm
Thats not Karol   
Dm        G   Ab
Over the sea    
 Ab       Bb                 A
This are things are ment to be

I heard you say...

C         E     Dm
Thats not Karol   
Dm        G  
Karol with me
C         E     Dm
Thats not Karol   
Dm        G   Ab
Over the sea    
 Ab       Bb                 A
This are things are ment to be

I heard you say...

Bridge:
C E Dm G x2

B              E     C  
It should have be enough
B              E     C  
It should have be enough
B              E     C  
It should have be enough
Bb             
watching you...

B              E     C  
It should have be enough
B              E     C  
It should have be enough
B              E     C  
It should have be enough
Bb             
watching you...
         A     
watching you...

Thats not Karol...

               E F
I heard you say   


שירים נוספים של הזבובים:
שירים נוספים מהקטגוריה רוק:
זקני צפת - רק אל תלכי
כוורת - משה כן משה לא
שלום חנוך - חתונה לבנה
עברי לידר - לאונרדו
אביב גפן - אל תדאג

בואו ללמוד עם אמנים מכל הארץ בביכורים
הודעה מהמערכת
כרגע אינך מופיע בתוצאות החיפוש של מערכת הכרויות הנגנים ב TAB4U.