הסתר פרסומות
הידעת ?
אין הידעת, הוסף ידיעה
אקורדים לשיר Volare - Gipsy Kings
דירוג: 5.86 הירשם ודרג!

First verse:

e|---0-----------------------2---2-----2----4—2h4p2-|
B|--0-----------------------2---------2----2--------|
G|-1---------1-------------2---------2----2---------|
D|---------4--------------4----4----3----2----------|
A|-------2------------------------------------------|
E|-----0--------------------------------------------|


e|--4----------4—-2h4p2----4-----7-|
B|--4----------2--2--------5-----7-|
G|--4----------2--2--------6-----8-|
D|--6--------2-------------6-----9-|
A|--6------4---------------4-----9-|
E|--4----2-----------------------7-|

Pienso que un sueno parecido no volvera mas
Y me pintaba las manos lon cara de azul
Y de improviso el viento rapido me llevo
Y me hizo volar   en cielo infinito

Chorus:

Volare    oh oh
Cantare   oh oh oh oh
Nel blu   dipinto di blu
Felice   di stare lassu

Y volando volando feliz
Yo me encuentro mas alto mas alto que el sol
Mientras el mundo se aleja despacio de ti 
Una musica dulce tocada solo para mi   

Repeat Chorus

Solo 1:



Pienso que un sueno parecido no volvera mas
Y me pintaba las manos lon cara de azul
Y de improviso el viento rapido me llevo
Y me hizo volar en cielo infinito

Repeat Chorus

Solo 2:




Repeat Chorus

Pienso que un sueno....

Repeat Chorus

Nel blu   dipinto di blu
Felice   di stare lassu

Nel blu   dipinto di blu
שירים נוספים של Gipsy Kings:
Presidente Bamboleo Baila Me un amor Amor Mio
שירים נוספים מהקטגוריה שירים עם סולו גיטרה:
אטרף - שולה
ג'וני שועלי - עכשיו
כוורת - יו יה
אריק סיני - אם את בסביבה
אורי בנאי - הזמנה לחתונה
הודעה מהמערכת
כרגע אינך מופיע בתוצאות החיפוש של מערכת הכרויות הנגנים ב TAB4U.