הסתר פרסומות
הידעת ?
אין הידעת, הוסף ידיעה
אקורדים לשיר As A Stone - Full Trunk

Full Trunk וSivan Talmor - As A Stone

מחבר: Gal nisman
מלחין: Gal nisman & Ariel Keshet
Intro: 
Bbm C# Eb x2

e|--------------------------------|
B|-6-6-6-6h7--7-7p6h7p6-----------|
G|-----------------------8-8s10---|
D|--------------------------------|
A|--------------------------------|
E|--------------------------------|

e|----------------------8-9-8h9p8-|
B|-------------11-11--11----------|
G|-10-10-10-10--------------------|
D|--------------------------------|
A|--------------------------------|
E|--------------------------------|

e|--------------------------------|
B|-11-9----9-11p9-----------------|
G|-----8--8-------10--8-8-10p8----|
D|------------------11--------11p8|
A|--------------------------------|
E|--------------------------------|

e|--------------------------------|
B|--------------------------------|
G|----------5h6p5-----------------|
D|-6-8--8-8------8-6----6-8-6-----|
A|------------------8--8-----8-6-6|
E|--------------------------------|

e|--------------------------------|
B|--------------------------------|
G|--------------------------------|
D|--------------------------------|
A|-6h8p6--------------------------|
E|-------9-6-4-6------------------|

Bbm     C#  Ebm                   
Slowly I'm facing all the things I
       Bbm 
Left behind
Bbm               C#        Ebm  
All, all I ever tried was just to
                      Bbm 
Find a way to ease my mind

C#                 Ab  
Cold hearted as a stone
Ebm                     Bbm 
Pulling tricks to play along
          C#           Ab     
I'm going back to be myself as
       Bbm  
I have known

C#                 Ab  
Cold hearted as a stone
Ebm                     Bbm 
Pulling tricks to play along
          C#           Ab     
I'm going back to be myself as
       Bbm  
I have known

Bbm     C#  Ebm                   
Slowly I'm facing all the things I
       Bbm 
Left behind
Bbm    C#  Ebm                     
Slowly I'm letting go of fears I've
         Bbm 
Tried to hide

C#                 Ab  
Cold hearted as a stone
Ebm                     Bbm 
Pulling tricks to play along
          C#           Ab     
I'm going back to be myself as
       Bbm  
I have known

C#                 Ab  
Cold hearted as a stone
Ebm                     Bbm 
Pulling tricks to play along
          C#           Ab     
I'm going back to be myself as
       Bbm  
I have known




שירים נוספים של Full Trunk:
As a Stone As A Stone Baby Put The Gun Down Going home
שירים נוספים מהקטגוריה שיר שנערך על ידי גולש:
רותם כהן - באמצע החיים
שממל - ישבני
לידור יוספי - תחשבי
Nadav Guedj - אולי נדבר
גיא מנטש - השמש תזרח
הודעה מהמערכת
כרגע אינך מופיע בתוצאות החיפוש של מערכת הכרויות הנגנים ב TAB4U.