רשימת אמנים לפי אותיות
א ב ג ד ה ו ז ח ט י כ ל מ נ ס ע פ צ ק ר ש ת A B C D E F G H I J K L M N O P Q R S T U V W X Y Z

אקורדים לשיר Time of your life - Green day
דרגו: 1 2 3 4 5

Green day - Time of your life

קטגוריה: Rock | Familiar Songs | Guitar solo




  
שירים נוספים:       הקודם הבא


Intro:

e||---------------------||
B||---------------------||
G||-----0-----------0---||
D||---0---0-------0---0-||
A||---------------------||
E||-3-----------3-------||

Verse: 1 & Intro

   G                                   Cadd9               D9             
e||----------------------------------|-----------------------------------|
B||----------3---------------3-------|---------3-----------------3-------|
G||------------0---0-----------0-----|------------0-----0----2-----2---2-|
D||-----0--------0------0--------0---|-----2---------2----0----------0---|
A||----------------------------------|--3--------------------------------|
E||--3---------------3---------------|-----------------------------------|

Verse 2:

    Em            D9                    Cadd9             G               
e||----------------------------------|-----------------------------------|
B||-------0--------------3-----------|----------3----------------3-------|
G||---------0---0-----2----2---2-----|------------0---0------------0---0-|
D||----2------2----0---------0-------|-----2--------2-------0--------0---|
A||--2-------------------------------|--3--------------------------------|
E||--0-------------------------------|--------------------3--------------|

Chorus:

   Em              G                  Em              G                 
e||----------------------------------|---------------------------------|
B||---------0---------------3--------|--------0---------------3--------|
G||-----------0---0-----------0---0--|----------0---0-----------0---0--|
D||-----2-------2-------0-------0----|-----2------2-------0-------0----|
A||----------------------------------|---------------------------------|
E||--0---------------3---------------|--0--------------3---------------|

  Em             D9                
e||-------------------------------|
B||--------0-------------3--------|
G||----------0---0----2----2---0--|
D||-----2------2---0---------0----|
A||-------------------------------|
E||--0----------------------------|

Verse1 :

 G                      Cadd9             D9   G
Another turning point a fork stuck in the road  
G                             Cadd9              D9 Em
Time grabs you by the wrist directs you where to go   

Verse 2:

Em          D9            Cadd9              G  Em
So make the best of these days and don't ask why  
Em          D9            Cadd9             G   
It's not a question but a lesson learned in time

Verse: 3

     Em             G            Em              G    
It's something unpredictable but in the end it's right
  Em                D            G     C9 D9 G C9 D9 G
I hope you have the time of your life.                

Chorus:

G                            Cadd9              D9   G
So take the photographs and stillframes in your mind  
G                      Cadd9            D9    Em
Hang it on a shelf and goodav than good times   

Verse 2:

Em         D9           Cadd9      G    Em
Tatoos and memories and asking on trial   
Em            D9           Cadd9         G    
For what it's worth it was worth all the while

Repeat Chorus

Solo:

    G           C9  D9  G              Cadd9  D9  G              
e||-7-8-10--8-7-8----------7-8-10--8-7-8---10-10----14s15-14-12-|
B||-----------------10------------------------------------------|
G||-------------------------------------------------------------|
D||-------------------------------------------------------------|
A||-------------------------------------------------------------|
E||-------------------------------------------------------------|

         Cadd9          D9      G               Cadd9     D9     
e|---------------------------------7-8-10--8-7--8--7------------|
B|-15-12-13--12--------------------------------------10---8-7---|
G|--------------14---12-14------------------------------------7-|
D|-------------------------12-----------------------------------|
A|--------------------------------------------------------------|
E|--------------------------------------------------------------|

  Em        D  C      D9      Em  D   C     G   
e|-7-------------------7----------------------||
B|----10-8-10----8--10--------7---------------||
G|--------------------------------9----7----9-||
D|--------------------------------------------||
A|--------------------------------------------||
E|--------------------------------------------||

Repeat Chorus x2


תגובות
חזרה חזרה למעלה למעלה בשביל להגיב יש להירשם לאתר    הרשמה \ התחברות
10.  
שי שמואלי
[12:49 21.05.2014]
הפריטה למי שמחפש בס של האקורד (4\5\6)ואז 3 2 3 4 3

9.  
רותם
[18:49 08.10.2011]
אחרי הפירוק באקורדים ביכלל פורטים למטה למטה ואז למעלה למטה למעלה לתשומת ליבכם

8.  
מניע
[16:26 08.07.2011]
בס 4232

7.  
שי
[13:56 04.03.2011]

שיר קל למי שלומד אותו עם מורה ..

אגב זה לא D9 זה D

וגם הטאבים לא הכי נכונים..תתקנו יש הרבה שלא מבינים 


6.  
דין
[18:15 17.02.2011]

מה אתה מחרטשים???

זה שאתם לא מנגנים את זה נכון לא הופך את האקורדים ללא נכונים... השיר בכלל הולך בטאבים... האצבעות על אותם האקורדים אבל פורטים רק על חלק... 


5.  
אליהו המתנחל
[15:06 13.07.2010]
הפריטה היא :
G-642343
Cadd9-542343
D9-432343
אגב, יש למעבר בין  האקורדים האלה צורה מאוד פשוטה שתי דקות תרגול ויש לכם את זה. בהצלחה! 

4.  
saasas
[17:48 03.07.2010]

פריטה למטה למטה למעלה למעלה למטה למעלה 

לפי הקצב של 632343


3.  
רועי
[17:34 04.05.2010]

לא הבנתי איך לנגן ): 

השיר מסובך ולא כלכך הלך לי


3.  
דור קפלן
[14:23 08.11.2009]
הפריטה הולכת ככה(לפי מיתרים): 6 3 2 3 4 3 (אקורד G) ופשוט משנים את הבס בכמה אקורדים,אני אשלח את האקורדים הנכונים למנהל האתר,ונשאר רק לקוות שיקבלו את זה... :)

1.  
נעם
[22:08 29.08.2009]
מה הפריטה פה.?