הסתר פרסומות
הידעת ?
אין הידעת, הוסף ידיעה
אקורדים לשיר Bohemian Rhapsody - Queen
דירוג: 5.98 הירשם ודרג!

Queen - Bohemian Rhapsody



קטגוריה: Rock | Familiar Songs
Gm            
Open your eyes
     Bb                    Eb
Look up to the skies and see 
Cm7                  F                 
I'm just a poor boy, I need no sympathy
B    Bb     A   Bb   B     Bb    A      Bb 
easy come, eays go, little high, little low
Eb             Bb/D   
Any way the wind blows
   C#dim            F7/C      F7/Eb  Bb
Doesn't realy matter to me     to me.  

Bb                 Gm   
Mama   just killed a man
       Cm                              Cm7   
put a gun against his head, pulled my trigger
           F 
Now he's dead
Bb               Gm              Cm
Mama  life had just begun, but now 
               G+5/B   Eb/Bb    Adim
I've gone and thrown it all away    
Eb   Bb/D           Fm        C/E Ab/Eb
Mama Oooo  didn't mean to make you cry 
Ddim    Bb          Bb6   Bb7  
if I'm not back again this time
     Eb  
tomarrow,
      Bb/D    Cm     
Carry on, carry on as
       Abm          Eb    Ab/Eb Eb Cdim Bb7b9 Bb
if nothing really matters                          
                       Gm 
Too late, my time has come
      Cm                  
Sent shivers down my spine
Cm7                      F
Body's achin' all the time
Bb                      Gm        
GooC#ye everybody, I've got to go,
        Cm         
Gotta leave you all
    G+5/B     Eb/Bb  Adim    Abmaj7   Eb/G
behind and face the truth.                
Eb    Bb/D Cm  Fm       C/E Ab/Eb
Mama Ooo     I don't want to die 
Ddim  Bb          Bb6          Bb7         
I sometimes wish I'd never been born at all

D/A  A Adim     A        D/A   A     Adim
I  see  a little  silhouetto  of  a  man 
A     D/A  A    D/A  A         Adim      A  D/A  A 
Scarmouch  Scarmouch  will  you  do  the  fandango?
C#/Ab    Ab       C#/Ab   Ab   
Thunder  bolts  and  lightening
 C/G         E7          A 
very  very  frightening  me

Galileo  Galileo Galileo
Galileofigaro Mangnifico oh oh oh
B    Bb        A    Bb   B    Bb   A    Bb
I'm  just  a  poor  boy  nobody  loves  me
Ab/Eb   Eb     Ebdim Eb    Ab/Eb   Eb   Ebdim   Eb
He's  just  a  poor  boy,  from  a  poor  family  
Ab                  Eb/G            F7       Bb
spare  him  his  life  from  this  monstrosity 

Bridge:
Ab/Eb Eb Cdim Bb7b9

B     Bb    A     Bb
Easy  come  easy  go
 B            Bb         Bbdim
will  you  let  me  go?        
 Bb5  Eb Bb5 Eb Bbsus4  Bb     Bbsus4   Bb  
Bismillah   NO,  we  will  not  let  you  go
Bb
Let  him  go
Bb  Eb Bb           
Bismillah  we  will 
Bbsus4  Bb Bbsus4 Bb                
Not   let  you  go      let  him  go
Bb  Eb Bb           Bbsus4  Bb
bismillah  we  will  not  let 
Bbsus4 Bb                
you  go      Let  me   go
Bbsus4 Bb Bbsus4 Bb                  
will  not  let  you  go   let  me  go
Bbsus4 Bb Bbsus4 Bb    
will  not  let  you  go

Let  me  go oh  oh  oh  oh oh
   A5   D   C#  Gb Bb5 Eb5                    
No  no  no  no  no  no  no  Oh mamamia mamamia
 Eb Ab Eb        Bb 
Mamamia  let  me  go
Eb    Ab        D7           
Beelzebub  has  a  devil  put
  Gm         Bb5                
aside  for  me   for  me  for me

Cm               Gm       Cm        Gm
Nothing really matters, anyone can see
Cm               Abm  
nothing raelly matters
Ab/Bb                     Eb   Ab/Eb   Eb
nothing really matters to me             

Bridge:
Ebdim Bb/D C#maj13 C C#dim C F

Bb     F      Fdim  C7sus4     F
Any way the wind blows          

e|------------|----------------------------------|--|
B|------------|----------------------------------|--|
G|------------|-8-------5----10------------------|--|
D|------------|-8-------5----10-------------8----|x2|
A|------------|-6----5--3-----8----7-6--5---8----|--|
E|-5----4--3--|-----------------------------6----|--|

e|--------------------------------------|
B|--------------------------------------|
G|-8-------------------5----------------|
D|-8-------------------5----------------|
A|-6----5---3~---------3----3-1-----8---|
E|-------------4-3-2-3----------3-1-----|

e|-------------------------------|
B|-------------------------------|
G|----------6-----------------2--|
D|----------6-----6-5-4---3---2--|
A|-7-6--5---4-----4-3-2---1---0--|
E|-------------------------------|

Solo:

e|-------------------------------------|
B|------------------11v---8---11b13vv--|
G|-----10b12--r10p8--------------------|
D|-8-----------------------------------|
A|-------------------------------------|
E|-------------------------------------|

e|----------------------------------|
B|---13~---15-16-13~---15-16-b18~---|
G|(x)-------------------------------|
D|----------------------------------|
A|----------------------------------|
E|----------------------------------|

e|----------------15--16--18--b20v-----18--16--|
B|------------18-------------------------------|
G|--------17-----------------------------------|
D|---x-17--------------------------------------|
A|---------------------------------------------|
E|---------------------------------------------|

e|15-16-15h16p15----15-------------------------------------|
B|---------------18----18-16-15-16-15h16p15----15----------|
G|------------------------------------------17----17-15-15~|
D|---------------------------------------------------------|
A|---------------------------------------------------------|
E|---------------------------------------------------------|

e|-----------------15-16-18------------------15-16-18--b20~|
B|--------15-16-18------------------15-16-18---------------|
G|-15--17---------------------15-17------------------------|
D|---------------------------------------------------------|
A|---------------------------------------------------------|
E|---------------------------------------------------------|

e|---------------------------------------|
B|-15-16-13~---15-16-13~---15-16-b18~----|
G|---------------------------------------|
D|---------------------------------------|
A|---------------------------------------|
E|---------------------------------------|

e|---------------13-----------9-9-9--\2------------|
B|-------------------------------------2---h3p2p0--|
G|-10-12-b13~----------b13~----------------------2-|
D|-------------------------------------------------|
A|-------------------------------------------------|
E|-------------------------------------------------|

e|-----|-------------------------------------------|
B|-----|-------------------------------------------|
G|-----|-------------------------------------------|
D|-8---|-------------------------------------------|
A|-8---|-6---------------3-5-6---6-------------3---|
E|-6---|-----3---4---6---------------3---4---6---6-|

e|---------------------------------------------|
B|---------------------------------------------|
G|---------------------------------------------|
D|---------------------------------------------|
A|-6---------------3-5-6----8-------------5----|
E|-----3---4---6----------------5---6---8---8--|

e|---------------------------------------------|
B|---------------------------------------------|
G|-------8--8----------------------6~----------|
D|-8-----8--8--8---8---6-8-6------------8----8-|
A|-8-----6--6--8-------------8----------8----8-|
E|-6-----6--6--6---------------9--------6----6-|

e|--------------------------------------------|
B|--------------------------------------------|
G|---8--8--8------------------3---------------|
D|---8--8--8--6---------------3---3h5--3------|
A|---6--6--6--6---------------1-----------5-3-|
E|------------4----4--3--1--------------------|

e|-------------------------------------------|
B|-------------------------------------------|
G|------3-----------------------3---------3--|
D|------3--------3-5p3----------3---------3--|
A|------1----4h5-------5p3------1---------1--|
E|-1-----------------------1---------1-------|

e|-------------------------------------------|
B|-------------------------------------------|
G|-------------------------------------------|
D|-------------------------------------------|
A|-6-----------3-5-6---6------------3------6-|
E|----3--4--6--------------3---4---6---6-----|

e|----------------------------------|
B|----------------------------------|
G|----------------------------------|
D|----------------------------------|
A|-------------3-5-6--8-------------|
E|-3---4---6--------------5---6---8-|

e|---------------------------------------------|
B|---------------------------------------------|
G|---------------------------------------------|
D|--------5-7-8---7-8-10---8-10-11-------------|
A|-5-7-8---------------------------------------|
E|---------------------------------7----4----6-|

e|-----------------------|------------------------|
B|-----------------------|------------------------|
G|-------------6---6-8-9-|------------------------|
D|-------6-7-9---9-------|-------------------6-8-8|
A|-6-7-9-----------------|---------6-8-9-8-9------|
E|-----------------------|-8-6-8-9----------------|

e|----------------------------------|
B|----------------------------------|
G|----------------------------------|
D|------------------------------8---|
A|-----------------8----8-10-11-8---|
E|-10-8-10-8-10-11---11---------6---|

e|-------3-6-|---------6-|----------------|
B|-x---4-----|-------6---|--------8-b13~--|
G|---3-------|-7---7-----|-8----8---------|
D|-----------|---8-------|---10-----------|
A|-6---------|-5---------|-4--------------|
E|-----------|-----------|----------------|

e|---------------------|---------------------------|
B|-8---8----8b9----9-8-|-6---8h9p9-----8-11-10---\3|
G|-7---8~---7-----10-8-|-7---8h10p8---10-12-11---\8|
D|---------------------|---------------------------|
A|-2---3----2------5-3-|-1--------6----------5-----|
E|---------------------|---------------------------|

e|-/15-14---15-17-17b18~--\8--8s10s6--/8--8s10s6----|
B|----------17-19-19b20~--\9--9s11s8---8----11s8----|
G|-/15-14-------------------------------------------|
D|--------------------------------------------------|
A|--------------------------------------------------|
E|--------------------------------------------------|

e|-----------------------------------------|
B|-11p9---9p8---8~----8p5------------------|
G|--------------------------5s3--\2--/10~--|
D|-----------------------------------------|
A|-----------------------------------------|
E|-----------------------------------------|




שירים נוספים של Queen:
The Show Must Go On Don't Stop Me Now Love Of My Life I want It All We Are The Champions A Kind Of Magic Under Pressure The Prophet's Song
שירים נוספים מהקטגוריה Rock:
Madness - House Of Fun
David Bowie - Lazarus
R.E.M. - The One I Love
Linkin Park - Numb
Hozier - Work Song
הודעה מהמערכת
כרגע אינך מופיע בתוצאות החיפוש של מערכת הכרויות הנגנים ב TAB4U.